Cifra Club

Cocaine Blues

Keith Richards

Cifra: Principal (violão e guitarra)
Selo Cifra Club: esta cifra foi revisada para atender aos critérios oficiais da nossa Equipe de Qualidade.
tom: C
[Intro]
E|--3----------3---------3--|-----------0--------------|
B|-----1-----------1--------|-----1-----------3--------|
G|--------------------------|--------------------------|
D|--------2-----------2-----|--------2-----------2-----|
A|--3----------3------------|--3-----------3-----------|
E|--------------------------|-----------------------0--|
                                          
E|--------------------------|---------------------------|
B|-----1-----3-1----------1-|------3^--1--3--3----1---1-|
G|--------2--------2--------|---------------------------|
D|-------------------3------|---------------------------|
A|-------------0------------|---------------------3-----|
E|--1--------1--------------| 1------------1-------------|
                                      
E|--------0---3-------------|--------------------------|
B|-----1-----------1--------|-----1-----1--------------|
G|-----------------------0--|-----------------0-----0--|
D|--------2-----------2-----|--------2-----------0-----|
A|--3-----------3-----------|--3-----------------------|
E|--------------------------|--------------3-----------|
                                      
E|-------------------------|--------------------------|
B|-----1-----------0-------|-----1-----------1--------|
G|-----------0-------------|-----------0-----------0--|
D|--------2-----------0----|--------2-----------2-----|
A|--3----------------------|--3-----------3-----------|
E|--------------3----------|--------------------------|

[Verse 1] (Play twice)                                 
E|-----3-----------3--------|-----3-----------3-------|
B|-----------1-----------1--|-----------1-------------|
G|--------------------------|--------------------0----|
D|--------2-----------2-----|--------2----------------|
A|--3-----------3-----------|--3-----------3----------|
E|--------------------------|-------------------------|
                                          
E|--------------------------|-------------------------|
B|-----1-----1-----1-----1--|-----3^--1-----3^-----1--|
G|--------------------------|-------------------------|
D|--------3-----------3-----|-------------------------|
A|--------------------------|-------------------------|
E|--1-----------1-----------|--1----------1-----------|
                                     
E|--------0---3-------------|--------------------------|
B|--------------------------|-----1-----1-----0-----0--|
G|-----0-----------0------0-|--------------------------|
D|--------2-----------2-----|--------2-----------0-----|
A|--3---------3-------------|--3-----------------------|
E|--------------------------|--------------3-----------|
                                      
E|--------------------------|--------------------------| (---3-!)2ND TIME.
B|-----1-----------1--------|-----1-----------1--------|
G|-----------0-----------0--|-----------0------------0-|
D|--------2-----------0-----|--------2-----------2-----|
A|--3-----------------------|--3-----------3-----------|
E|--------------3-----------|--------------------------|

[Bridge]                          
E|-----0-----0--------------|-----0-----------0--------|
B|-----------------0-----0--|-----------0--------3---1-|
G|--------------------------|--------------------------|
D|--------2-----------2-----|--------2-----------------|
A|--------------------------|--------------------------|
E|--0-----------0-----------|--0-----------0-----------|
                                        
E|-------------------------|----------------------------|
B|--------1-------1-----1--|-----1-----1-----3^------1--|
G|-----2-------------------|----------------------------|
D|--------3----------------|----------------------------|
A|-------------------3-----|--3-----------3-------------|
E|--1----------1-----------|--------1-------------------|
                                      
E|--------0--3--------------|--------------------------|
B|-----------------------1--|-----1-----1-----0-----0--|
G|-----0-----------0--------|--------------------------|
D|--------2-----------2-----|--------2-----------0-----|
A|--3--------3--------------|---3---------------------|
E|--------------------------|--------------3-----------|
                                      
E|--------------------------|-----------------------3--|
B|-----1-----------1--------|-----1-----------1--------|
G|-----------0-----------0--|-----------0--------------|
D|--------2-----------0-----|--------2-----------2-----|
A|--3-----------------------|--3-----------3-----------|
E|--------------3-----------|--------------------------|

[Instrumental]
E|--3--------3-----------3--|-----------0--------------|
B|-----1-----------1--------|-----1-----------3--------|
G|--------------------------|--------------------------|
D|--------2-----------2-----|--------2-----------2-----|
A|--3-----------3-----------|--3-----------3-----------|
E|--------------------------|-----------------------0--|
                                      
E|--------------------------|--------------------------|
B|-----1-----3--1--------1--|--1--1--3--4--5-----0-----|
G|--------2--------2--------|-----------------5-----2--|
D|--------------------3-----|--------3-----------0-----|
A|--------------0-----------|--------------------------|
E|--1--------1--------------|--1-----------3-----------|

(second inst goes to end at this point) 
E|--------0--3--------------|--------------------------|
B|-----------------------1--|-----1-----1-----0-----0--|
G|-----0-----------0--------|--------------------------|
D|--------2-----------2-----|--------2-----------0-----|
A|--3--------3--------------|--3-----------------------|
E|--------------------------|--------------3-----------|

E|--------------------------|--------------------------|
B|-----1-----------1--------|-----1-----------1--------|
G|-----------0-----------0--|-----------0-----------0--|
D|--------2-----------0-----|--------2-----------2-----|
A|--3-----------------------|--3-----------3-----------|
E|--------------3-----------|--------------------------|

 [End] (played slower)
E|-----------3-----------|--------------------|
B|-----------------------|--------------------|
G|-----0-----------------|--------------------|
D|--------2--------------|--------------------|
A|--3--------------------|--------------------|
E|-----------------------|--3-----------------|
              
E|--3--------0-----------|--0-----------------|
B|-----1-----------------|--1-----------------|
G|-----------------------|--0-----------------|
D|--------2--------------|--2-----------------|
A|--3--------------------|--3-----------------|
E|-----------------------|--------------------|
Outros vídeos desta música
    299 exibições
      • ½ Tom
      • A
      • Bb
      • B
      • C
      • Db
      • D
      • Eb
      • E
      • F
      • F#
      • G
      • Ab
    • Adicionar à lista

    Afinação da cifra

    Afinador online

      0 comentários

      Ver todos os comentários

      Entre para o Cifra Club PRO

      Tenha acesso a benefícios exclusivos no App e no Site

      • Chega de anúncios

      • Badges exclusivas

      • Mais recursos no app do Afinador

      • Atendimento Prioritário

      • Aumente seu limite de lista

      • Ajude a produzir mais conteúdo

      Cifra Club Pro

      Aproveite o Cifra Club com benefícios exclusivos e sem anúncios
      Cifra Club Pro
      Aproveite o Cifra Club com benefícios exclusivos e sem anúncios
      Ops (: Contenido disponible sólo en portugués.
      OK