Cifra Club

Dying Young

Kenny G

Cifra: Principal
exibições 63.445
Tom: A
E||------------------|------------------|------------------|------------------|
B||------------------|------------------|------------------|------------------|
G||------------------|------------------|------------------|------------------|
D||------------------|------------------|------------------|------------------|
A||------------------|------------------|------------------|------------------|
E||------------------|------------------|------------------|------------------|


                                                              
------------------|--6------------------|--8-----------------|
------------------|---------6--------6--|---------6----------|
------------------|---------------------|--------------------|
------------------|---------------------|--------------------|
------------------|---------------------|--------------------|
------------------|---------------------|--------------------|


                                                                   
--5------3----1-------1-|-------------------|--3---------------3--|
--------------------4---|--3----------------|---------3-----------|
------------------------|-------------------|---------------------|
------------------------|-------------------|---------------------|
------------------------|-------------------|---------------------|
------------------------|-------------------|---------------------|


                                                                   
--5------------------|--6--5--3--1------------|-------------------|
---------3--3--------|--------------------4-3-|--1----------------|
---------------------|------------------------|-------------------|
---------------------|------------------------|-------------------|
---------------------|------------------------|-------------------|
---------------------|------------------------|-------------------|


                                                                     
--6------------------|--8-----------------|--5----6--8------5-----3-|
---------6--------6--|---------6----------|---------------------6---|
---------------------|--------------------|-------------------------|
---------------------|--------------------|-------------------------|
---------------------|--------------------|-------------------------|
---------------------|--------------------|-------------------------|


                                                                
--1----------------|--3---------------3--|--5------------------|
-------------------|---------3-----------|---------3--3--------|
-------------------|---------------------|---------------------|
-------------------|---------------------|---------------------|
-------------------|---------------------|---------------------|
-------------------|---------------------|---------------------|


                                                                           
--6--5--3--1------------|--1-------------------|--13------13--------10-11-|
--------------------3-4-|-------4-3-1----------|--------------------------|
------------------------|----------------------|--------------------------|
------------------------|----------------------|--------------------------|
------------------------|----------------------|--------------------------|
------------------------|----------------------|--------------------------|


                                                           
--13----11-10-8------6--8--9-|--10---------8-10------8-10-|
-----------------------------|----------11----------------|
-----------------------------|----------------------------|
-----------------------------|----------------------------|
-----------------------------|----------------------------|
-----------------------------|----------------------------|


                                                                           
--11----8-10--8-6--8-----15---13----13-|--------------13--15-----------13-|
---------------------------------15----|--------15-16------------15-16----|
---------------------------------------|----------------------------------|
---------------------------------------|----------------------------------|
---------------------------------------|----------------------------------|
---------------------------------------|----------------------------------|


                                                              
-------11-10-8------6--8--9-10-|--------15--13---------------|
-------------------------------|--------------------15-13----|
-------------------------------|--------------------------15-|
-------------------------------|-----------------------------|
-------------------------------|-----------------------------|
-------------------------------|-----------------------------|


                                                                               
--------------------------------|------------------|----2-3-3---1--1--------6-|
--------13-15--13---------------|------------------|--------------------------|
--------------------15--14--15--|------------------|--------------------------|
--------------------------------|------------------|--------------------------|
--------------------------------|------------------|--------------------------|
--------------------------------|------------------|--------------------------|


                                                                       
--------------------8-|-------------------5-|-------6--5------3---1---|
--------6--------6----|--------6------------|-------------------3-----|
----------------------|---------------------|-------------------------|
----------------------|---------------------|-------------------------|
----------------------|---------------------|-------------------------|
----------------------|---------------------|-------------------------|


                                                                        
-------------------3-|-------------------3-6-5-|---------------------6-|
---------------------|-------3--3--------------|-------3--3------------|
---------------------|-------------------------|-----------------------|
---------------------|-------------------------|-----------------------|
---------------------|-------------------------|-----------------------|
---------------------|-------------------------|-----------------------|


                                                      
----5--3----1------3-6-8-|----------------10---11-13-|
-------------------------|---------------------------|
-------------------------|---------------------------|
-------------------------|---------------------------|
-------------------------|---------------------------|
-------------------------|---------------------------|


                                                                  
--------10-11-13--15-----------13-|-------11-10-8------6--8-9-10-|
-------------------------15-16----|------------------------------|
----------------------------------|------------------------------|
----------------------------------|------------------------------|
----------------------------------|------------------------------|
----------------------------------|------------------------------|


                                                                   
--------------8-10------8-10-11-|-----8-10--8-6--8-----15---13----|
-----------11-------------------|------------------------------15-|
--------------------------------|---------------------------------|
--------------------------------|---------------------------------|
--------------------------------|---------------------------------|
--------------------------------|---------------------------------|


                                                                   
---13------15----13--15------------|---13----11-10-8------6--8--9-|
--------------15------------15-16--|------------------------------|
-----------------------------------|------------------------------|
-----------------------------------|------------------------------|
-----------------------------------|------------------------------|
-----------------------------------|------------------------------|


                                                                  
---10------15--13-------------|---------------------------13-----|
-----------------------15-13--|-----------13-15-13---15------15--|
------------------------------|---15-----------------------------|
------------------------------|----------------------------------|
------------------------------|----------------------------------|
------------------------------|----------------------------------|


                                                                       
---15------17-18----------|-------------------------------------------|
--------------------------|----19-20-19-20---18----18--20---------18--|
--------------------------|---------------------19-------------20-----|
--------------------------|---------------------------------20--------|
--------------------------|-------------------------------------------|
--------------------------|-------------------------------------------|


                                                                         
----------17-18-20----18--------|---------------------------------------|
---20-----------------------20--|---18----20---18----18--20-------------|
--------------------------------|-----------------19-------------19-20--|
--------------------------------|-----------------------------20--------|
--------------------------------|---------------------------------------|
--------------------------------|---------------------------------------|


                                                                          
---------------16-17-18----16--18-17-16-|---16---------------------------|
---18-------18--------------------------|---------16----14----16---14-16-|
----------------------------------------|--------------------------------|
----------------------------------------|--------------------------------|
----------------------------------------|--------------------------------|
----------------------------------------|--------------------------------|


                                                                            
------------------13---15-------13-15-13-|--18------14-15--13--------------|
---13-------15-13------------13----------|--------------------------15-13--|
-----------------------------------------|---------------------------------|
-----------------------------------------|---------------------------------|
-----------------------------------------|---------------------------------|
-----------------------------------------|---------------------------------|


                                                   
--------------------------|-----------------------|
--------------------------|---13------------------|
---15---------------------|-----------------------|
-----------15--------15---|-----------15----------|
--------------------------|-----------------------|
--------------------------|-----------------------|


                                                                               
--------------------------------|-------------------|---3---------------3-6---|
--------------------------------|-------------------|----------3--3-----------|
---14----15--14------12----10---|-------------------|-------------------------|
------------------------12------|-------------------|-------------------------|
--------------------------------|-------------------|-------------------------|
--------------------------------|-------------------|-------------------------|


                                                      
---5--------------5---8-|---6--5--3--1------3--6--8--|
----------3--3----------|----------------------------|
------------------------|----------------------------|
------------------------|----------------------------|
------------------------|----------------------------|
------------------------|----------------------------|


                                                                    
---10-------8-6-8----10--11-----|---13------10-11-13--15-----------|
--------------------------------|----------------------------15-16-|
--------------------------------|----------------------------------|
--------------------------------|----------------------------------|
--------------------------------|----------------------------------|
--------------------------------|----------------------------------|


                                                              
---13----11-10-8------6--8--9--|---10---------8-10------8-10-|
-------------------------------|-----------11----------------|
-------------------------------|-----------------------------|
-------------------------------|-----------------------------|
-------------------------------|-----------------------------|
-------------------------------|-----------------------------|


                                                                         
---11----8-10--8-6--8-----15---13----|---13------15----13--15-----------|
----------------------------------15-|--------------15------------15-16-|
-------------------------------------|----------------------------------|
-------------------------------------|----------------------------------|
-------------------------------------|----------------------------------|
-------------------------------------|----------------------------------|


                                                             
---13----11-10-8------6--8--9-|---10------15--13------------|
------------------------------|-----------------------15-13-|
------------------------------|-----------------------------|
------------------------------|-----------------------------|
------------------------------|-----------------------------|
------------------------------|-----------------------------|


                                                              
---------------------------------------|---------------------|
---------13----15----13----------------|---------------------|
---15----------------------15----14----|---15----------------|
---------------------------------------|---------------------|
---------------------------------------|---------------------|
---------------------------------------|---------------------|


                                                              
-------------------------------|-------------------------10--|
---------15--13----------------|---------------------11------|
-------------------15----14----|---15------------12----------|
-------------------------------|-------------15--------------|
-------------------------------|-----------------------------|
-------------------------------|-----------------------------|


                                                    
---8----6--8--5-------------|---------------------||
---------------------6-4-6--|---3-----------------||
----------------------------|---------------------||
----------------------------|---------------------||
----------------------------|---------------------||
----------------------------|---------------------||
Acordes para:
    Colaboração e revisão:
    • Leonardo Dias

    0 comentários

      mostrar mais comentários

      Conseguiu tocar?

      4tocaram0ainda não

      Grave um vídeo tocando Dying Young e mande pra gente!

      00:00 / 00:00
      outros vídeos desta música
      repetirqualidadeautomática
      Outro vídeos desta música
        00:00 / 00:00
        automática
        OK