Cifra Club

Blood

KennyHoopla

Cifra: Principal (violão e guitarra)
Selo Cifra Club: esta cifra foi revisada para atender aos critérios oficiais da nossa Equipe de Qualidade.
tom: D
    Dmaj7 Gsus2 Bsus2 

E|-(0)--(0)-----(0)--|
B|-(0)--(0)-----(0)--|
G|-(0)---x------x---|
D|--11---7------11---|
A|--9----5------9----|
E|--0----5------9----|


I'll tab out the way he plays it in the one take and you can find the chords below.

[Intro]

E|------------|
B|------------|
G|------------|
D |-x-x-x-x-x-x|
A |-x-x-x-x-x-x|
D |-x-x-x-x-x-x|

E|------------------------------------------------0-------0-------0-------0-------|
B|------------------------------------------------0-------0-------0-------0-------|
G|------------------------------------------------x-------x-------x-------x-------|
D|-----11-11-------11-11br-----11-----11-x-x------7-------7-------7-------7---x/--|
A|-9-9-9--9--9--9--9--9----9-9-9--9-9--9-x-x--5-5-5-5-5-5-5-5-5-5-5-5-5-5-5-5-x/--|
E|-0-0-0--0--0--0--0--0----0-0-0--0-0--0-x-x--5-5-5-5-5-5-5-5-5-5-5-5-5-5-5-5-x/--|

E|----------------------------------------------0-------0-------0-------0---------|
B|----------------------------------------------0-------0-------0-------0---------|
G|----------------------------------------------x-------x-------x-------x---------|
D|-----11-----11---11br------11-----11-x-x------7-------7-------7-------7---x/----|
A|-9-9-9--9-9-9--9--9----9-9-9--9-9--9-x-x--5-5-5-5-5-5-5-5-5-5-5-5-5-5-5-5-x/----|
E|-9-9-9--9-9-9--9--9----9-9-9--9-9--9-x-x--5-5-5-5-5-5-5-5-5-5-5-5-5-5-5-5-x/----|

E|-----------------------------------------------0-------0-------0-------0--------|
B|-----------------------------------------------0-------0-------0-------0--------|
G|-----------------------------------------------x-------x-------x-------x--------|
D|-----11-11----11---11br-----11-----11-x-x------7-------7-------7-------7---x/---|
A|-9-9-9--9--9--9--9-9br--9-9-9--9-9--9-x-x--5-5-5-5-5-5-5-5-5-5-5-5-5-5-5-5-x/---|
E|-0-0-0--0--0--0--0-0----0-0-0--0-0--0-x-x--5-5-5-5-5-5-5-5-5-5-5-5-5-5-5-5-x/---|

E|-------------------------------------------0-------0-------0-------0------------|
B|-------------------------------------------0-------0-------0-------0------------|
G|-------------------------------------------x-------x-------x-------x------------|
D|-----11-------11-------11-------11---------7-------7-------7-------7---x/-------|
A|-9-9-9--9-9-9-9--9-9-9--9-9-9-9-9-0-0--5-5-5-5-5-5-5-5-5-5-5-5-5-5-5-5-x/-------|
E|-9-9-9--9-9-9-9--9-9-9--9-9-9-9-9-0-0--5-5-5-5-5-5-5-5-5-5-5-5-5-5-5-5-x/-------|

[Verse 1]

E|-------------------------------------------0-------0-------0-------0------------|
B|-------------------------------------------0-------0-------0-------0------------|
G|-------------------------------------------X-------X-------x-------x------------|
D|-----11-------11-------11-------11---------7-------7-------7-------7---x/-------|
A|-9-9-9--9-9-9-9--9-9-9--9-9-9-9-9-0-0--5-5-5-5-5-5-5-5-5-5-5-5-5-5-5-5-x/-------|
E|-0-0-0--0-0-0-0--0-0-0--0-0-0-0-0-0-0--5-5-5-5-5-5-5-5-5-5-5-5-5-5-5-5-x/-------|
                
E|-------------------------------------------0-------0-------0-------0------------|
B|-------------------------------------------0-------0-------0-------0------------|
G|-------------------------------------------x-------x-------x-------x------------|
D|-----11-------11-------11-------11---------7-------7-------7-------7---x/-------|
A|-9-9-9--9-9-9-9--9-9-9--9-9-9-9-9-0-0--5-5-5-5-5-5-5-5-5-5-5-5-5-5-5-5-x/-------|
E|-9-9-9--9-9-9-9--9-9-9--9-9-9-9-9-0-0--5-5-5-5-5-5-5-5-5-5-5-5-5-5-5-5-x/-------|

E|-------------------------------------------0-------0-------0-------0------------|
B|-------------------------------------------0-------0-------0-------0------------|
G|-------------------------------------------X-------X-------x-------x------------|
D|-----11-------11-------11-------11---------7-------7-------7-------7---x/-------|
A|-9-9-9--9-9-9-9--9-9-9--9-9-9-9-9-0-0--5-5-5-5-5-5-5-5-5-5-5-5-5-5-5-5-x/-------|
E|-0-0-0--0-0-0-0--0-0-0--0-0-0-0-0-0-0--5-5-5-5-5-5-5-5-5-5-5-5-5-5-5-5-x/-------|
                
E|-------------------------------------------0------------------------------------|
B|-------------------------------------------0------------------------------------|
G|-------------------------------------------0------------------------------------|
D|-----11-------11-------11-------11---------7---------------------------x/-------|
A|-9-9-9--9-9-9-9--9-9-9--9-9-9-9-9-0-0--5-5-5-------------------------5-x/-------|
E|-9-9-9--9-9-9-9--9-9-9--9-9-9-9-9-0-0--5-5-5-------------------------5-x/-------|


[Chorus]

E|-------------------------------------------0-------0-------0-------0------------|
B|-------------------------------------------0-------0-------0-------0------------|
G|-------------------------------------------X-------X-------x-------x------------|
D|-----11-------11-------11-------11---------7-------7-------7-------7---x/-------|
A|-9-9-9--9-9-9-9--9-9-9--9-9-9-9-9-0-0--5-5-5-5-5-5-5-5-5-5-5-5-5-5-5-5-x/-------|
E|-0-0-0--0-0-0-0--0-0-0--0-0-0-0-0-0-0--5-5-5-5-5-5-5-5-5-5-5-5-5-5-5-5-x/-------|
                
E|-------------------------------------------0-------0-------0-------0------------|
B|-------------------------------------------0-------0-------0-------0------------|
G|-------------------------------------------x-------x-------x-------x------------|
D|-----11-------11-------11-------11---------7-------7-------7-------7---x/-------|
A|-9-9-9--9-9-9-9--9-9-9--9-9-9-9-9-0-0--5-5-5-5-5-5-5-5-5-5-5-5-5-5-5-5-x/-------|
E|-9-9-9--9-9-9-9--9-9-9--9-9-9-9-9-0-0--5-5-5-5-5-5-5-5-5-5-5-5-5-5-5-5-x/-------|

E|-------------------------------------------0-------0-------0-------0------------|
B|-------------------------------------------0-------0-------0-------0------------|
G|-------------------------------------------X-------X-------x-------x------------|
D|-----11-------11-------11-------11---------7-------7-------7-------7---x/-------|
A|-9-9-9--9-9-9-9--9-9-9--9-9-9-9-9-0-0--5-5-5-5-5-5-5-5-5-5-5-5-5-5-5-5-x/-------|
E|-0-0-0--0-0-0-0--0-0-0--0-0-0-0-0-0-0--5-5-5-5-5-5-5-5-5-5-5-5-5-5-5-5-x/-------|
                
E|-------------------------------------------0------------------------------------|
B|-------------------------------------------0------------------------------------|
G|-------------------------------------------0------------------------------------|
D|-----11-------11-------11-------11---------7---------------------------x/-------|
A|-9-9-9--9-9-9-9--9-9-9--9-9-9-9-9-0-0--5-5-5-------------------------5-x/-------|
E|-9-9-9--9-9-9-9--9-9-9--9-9-9-9-9-0-0--5-5-5-------------------------5-x/-------|


[Verse 2]

E|-------------------------------------------0-------0-------0-------0------------|
B|-------------------------------------------0-------0-------0-------0------------|
G|-------------------------------------------X-------X-------x-------x------------|
D|-----11-------11-------11-------11---------7-------7-------7-------7---x/-------|
A|-9-9-9--9-9-9-9--9-9-9--9-9-9-9-9-0-0--5-5-5-5-5-5-5-5-5-5-5-5-5-5-5-5-x/-------|
E|-0-0-0--0-0-0-0--0-0-0--0-0-0-0-0-0-0--5-5-5-5-5-5-5-5-5-5-5-5-5-5-5-5-x/-------|
                
E|-------------------------------------------0-------0-------0-------0------------|
B|-------------------------------------------0-------0-------0-------0------------|
G|-------------------------------------------x-------x-------x-------x------------|
D|-----11-------11-------11-------11---------7-------7-------7-------7---x/-------|
A|-9-9-9--9-9-9-9--9-9-9--9-9-9-9-9-0-0--5-5-5-5-5-5-5-5-5-5-5-5-5-5-5-5-x/-------|
E|-9-9-9--9-9-9-9--9-9-9--9-9-9-9-9-0-0--5-5-5-5-5-5-5-5-5-5-5-5-5-5-5-5-x/-------|

E|-------------------------------------------0-------0-------0-------0------------|
B|-------------------------------------------0-------0-------0-------0------------|
G|-------------------------------------------X-------X-------x-------x------------|
D|-----11-------11-------11-------11---------7-------7-------7-------7---x/-------|
A|-9-9-9--9-9-9-9--9-9-9--9-9-9-9-9-0-0--5-5-5-5-5-5-5-5-5-5-5-5-5-5-5-5-x/-------|
E|-0-0-0--0-0-0-0--0-0-0--0-0-0-0-0-0-0--5-5-5-5-5-5-5-5-5-5-5-5-5-5-5-5-x/-------|
                
E|-------------------------------------------0------------------------------------|
B|-------------------------------------------0------------------------------------|
G|-------------------------------------------0------------------------------------|
D|-----11-------11-------11-------11---------7-------------------7-7-7-7-x/-------|
A|-9-9-9--9-9-9-9--9-9-9--9-9-9-9-9-0-0--5-5-5-------------------5-5-5-5-x/-------|
E|-9-9-9--9-9-9-9--9-9-9--9-9-9-9-9-0-0--5-5-5-------------------5-5-5-5-x/-------|



[Chorus]

E|-------------------------------------------0-------0-------0-------0------------|
B|-------------------------------------------0-------0-------0-------0------------|
G|-------------------------------------------X-------X-------x-------x------------|
D|-----11-------11-------11-------11---------7-------7-------7-------7---x/-------|
A|-9-9-9--9-9-9-9--9-9-9--9-9-9-9-9-0-0--5-5-5-5-5-5-5-5-5-5-5-5-5-5-5-5-x/-------|
E|-0-0-0--0-0-0-0--0-0-0--0-0-0-0-0-0-0--5-5-5-5-5-5-5-5-5-5-5-5-5-5-5-5-x/-------|
                
E|-------------------------------------------0-------0-------0-------0------------|
B|-------------------------------------------0-------0-------0-------0------------|
G|-------------------------------------------x-------x-------x-------x------------|
D|-----11-------11-------11-------11---------7-------7-------7-------7---x/-------|
A|-9-9-9--9-9-9-9--9-9-9--9-9-9-9-9-0-0--5-5-5-5-5-5-5-5-5-5-5-5-5-5-5-5-x/-------|
E|-9-9-9--9-9-9-9--9-9-9--9-9-9-9-9-0-0--5-5-5-5-5-5-5-5-5-5-5-5-5-5-5-5-x/-------|

E|-------------------------------------------0-------0-------0-------0------------|
B|-------------------------------------------0-------0-------0-------0------------|
G|-------------------------------------------X-------X-------x-------x------------|
D|-----11-------11-------11-------11---------7-------7-------7-------7---x/-------|
A|-9-9-9--9-9-9-9--9-9-9--9-9-9-9-9-0-0--5-5-5-5-5-5-5-5-5-5-5-5-5-5-5-5-x/-------|
E|-0-0-0--0-0-0-0--0-0-0--0-0-0-0-0-0-0--5-5-5-5-5-5-5-5-5-5-5-5-5-5-5-5-x/-------|
                
E|-------------------------------------------0------------------------------------|
B|-------------------------------------------0------------------------------------|
G|-------------------------------------------0------------------------------------|
D|-----11-------11-------11-------11---------7---------------------------x/-------|
A|-9-9-9--9-9-9-9--9-9-9--9-9-9-9-9-0-0--5-5-5-------------------------5-x/-------|
E|-9-9-9--9-9-9-9--9-9-9--9-9-9-9-9-0-0--5-5-5-------------------------5-x/-------|


[Ending]

E|---------------------------------------------------------------------------|
B|---------------------------------------------------------------------------|
G|---------------------------------------------------------------------------|
D|-11br------------11--------------------------------------------------------|
A|-9br-------------9---------------------------------------------------------|
E|-0---------------0---------------------------------------------------------|


************************************

| x   Dead note
| br  Bend release
| /   Slide up

************************************                 


Intro:

Dmaj7 Gsus2 Bsus2 Gsus2 x2


[Verse 1: nothing,nowhere.]

Dmaj7                       
Razors on the dashboard
Gsus2                        
Sneaking in the backdoor
Bsus2                             
Don't wanna, but I can't stop
Gsus2                                    
Maybe I will when I get caught, yeah
Dmaj7                      
Blood on the seats now
Gsus2                        
Speeding, going downtown
Bsus2                 
Now I'm on the TV
Gsus2                        
And I want you to see me

                         
[Chorus: nothing,nowhere.]

Dmaj7                                     
I know, I know, I know I need to stop
Gsus2                                         
But I cannot, 'cause baby, you're my drug
Bsus2                                Gsus2                      
And now I'm stuck, now I've got your blood on my hands        
Blood on my hands
Dmaj7                                     
I know, I know, I know I need to stop
Gsus2                                         
But I cannot, 'cause baby, you're my drug
Bsus2                                Gsus2                       
And now I'm stuck, now I've got your blood on my hands               
Blood on my hands

                                             
[Verse 2: KennyHoopla]

Dmaj7                                        
See the city at night, licking your lips
Gsus2                                                     
Know exactly what you want, just how you wanna get it
Bsus2                                                    
I was staring in this mirror since the clock hit ten
Gsus2                                              
Loose lips sink ships, so your smile locked in
Dmaj7                                     
This is something you can't sleep off
Gsus2                          
My love was with a Molotov
Bsus2                                  
Pierce my skin, prove I'm not gone
Gsus2                       
I know we all somewhere

                                            
Dmaj7                                     
I know, I know, I know I need to stop
Gsus2                                         
But I cannot, 'cause baby, you're my drug
Bsus2                                Gsus2                      
And now I'm stuck, now I've got your blood on my hands              
Blood on my hands
Dmaj7                                     
I know, I know, I know I need to stop
Gsus2                                         
But I cannot, 'cause baby, you're my drug
Bsus2                                Gsus2                       
And now I'm stuck, now I've got your blood on my hands               
Blood on my hands

                      
Dmaj7
Outros vídeos desta música
2 exibições
    • ½ Tom
    • A
    • Bb
    • B
    • C
    • Db
    • D
    • Eb
    • E
    • F
    • F#
    • G
    • Ab
  • Adicionar à lista

Afinação da cifra

Afinador online

    0 comentários

    Ver todos os comentários

    Entre para o Cifra Club PRO

    Tenha acesso a benefícios exclusivos no App e no Site

    • Chega de anúncios

    • Mais recursos no app do Afinador

    • Atendimento Prioritário

    • Aumente seu limite de lista

    • Ajude a produzir mais conteúdo

    Cifra Club Pro

    Aproveite o Cifra Club com benefícios exclusivos e sem anúncios
    Cifra Club Pro
    Aproveite o Cifra Club com benefícios exclusivos e sem anúncios
    OK