Cifra Club

Aprenda

Últimos Dias

Kiara Rocks

Cifra: Versão 4 (violão e guitarra)
Já pensou em usar uma coleção de roupas do Cifra Club? Responda as perguntas abaixo e nos ajude nessa missão! →
tom: C
(intro)
            (4x)                     |
E|----------------------------------|-----------------------------------|
B|----------------------------------|-----------------------------------|
G|----------------------------------|-----------------------------------|
D|5-x-5-5-x-8--10--12-12-12-12------|-8-10--12-12-12---8-10--12-12-12---|
A|3-x-3-3-x-6--8---10-10-10-10------|-6-8---10-10-10---6-8---10-10-10---|
E|----------------------------------|-----------------------------------|

(riff)
E|-------------------------------------------------------------|
B|-------------------------------------------------------------|
G|-------------------------------------------------------------|
D|-------------------------------------------------------------|
A|1-3-3-1-3-3-1-3-3-1-3-3-1-3-3--------------------------------|
E|------------------------------3-4-4-3-4-4-3-4-4-3-4-4-3-4-4--|

( C5 G#5 D#5 A#5 )

C5             C5 G#5 D#5 A#5
Me responda se puder
G#5
Coisas que nunca pensou
D#5
Hoje eu quero te dizer
A#5
Um pouco mais

C5
Se soubesse que o amanhã
G#5
Nunca mais fosse existir
D#5
Descobrisse que o sol
A#5
Não vai nascer

G5
Quando finalmente perceber
G#5
Entre o céu e o inferno
A#5
Nada vai restar

C5         D#5
Aonde você vai passar
          A#5 E|-3-4-4-3-4-4-3-4-4-3-4-4-3-4-4-|
Os seus últimos dias?

  C5       D#7
Com quem você escolheu ficar
          A#5 E|-3-4-4-3-4-4-3-4-4-3-4-4-3-4-4-|
Quando o céu desabar

E|-3-4-4-3-4-4-3-4-4-3-4-4-3-4-4-|       
Nos seus últimos dias?

            (2x)                     |
E|----------------------------------|-----------------------------------|
B|----------------------------------|-----------------------------------|
G|----------------------------------|-----------------------------------|
D|5-x-5-5-x-8--10--12-12-12-12------|-8-10--12-12-12--------------------|
A|3-x-3-3-x-6--8---10-10-10-10------|-6-8---10-10-10--------------------|
E|----------------------------------|-----------------------------------|

C5
Nada vai adiantar
G#5
Se esconder ou se abrigar
D#5
E por um segundo todos vão
A#5
ser iguais

C5
Se o céu for desabar
G#5
Ou então o chão se abrir
D#5                A#5
E o agora é tarde pra se arrepender

G5
Quando finalmente perceber
G#5
Entre o céu e o inferno
A#5
Nada vai restar

C5         D#5
Aonde você vai passar
          A#5 E|-3-4-4-3-4-4-3-4-4-3-4-4-3-4-4-|
Os seus últimos dias?
  C5       D#5
Com quem você escolheu ficar
          A#5 E|-3-4-4-3-4-4-3-4-4-3-4-4-3-4-4-|
Quando o céu desabar
E|-3-4-4-3-4-4-3-4-4-3-4-4-3-4-4-|         
Nos seus últimos dias?

(solo) C5 D#5 A#5 G#5

D#
Tão perto do fim
C5
Quando o chão se abrir
G#5              A#5
Descobrir que o sol não vai nascer

C5         D#5
Aonde você vai passar
          A#5 E|-3-4-4-3-4-4-3-4-4-3-4-4-3-4-4-|
Os seus últimos dias?
  C5       D#5
Com quem você escolheu ficar
          A#5 E|-3-4-4-3-4-4-3-4-4-3-4-4-3-4-4-|
Quando o céu desabar

C5         D#5
Aonde você vai passar
          A#5 E|-3-4-4-3-4-4-3-4-4-3-4-4-3-4-4-|
Os seus últimos dias?
  C5       D#5
Com quem você escolheu ficar
          A#5 E|-3-4-4-3-4-4-3-4-4-3-4-4-3-4-4-|
Quando o céu desabar
         |-3-4-4-3-4-4-3-4-4-3-4-4-3-4-4-|
Nos seus últimos dias?

( C5 )
Colaboração e revisão:
  • Leticia Praxedes
  • Camila Marano
1.813 exibições
    • ½ Tom
    • A
    • Bb
    • B
    • C
    • Db
    • D
    • Eb
    • E
    • F
    • F#
    • G
    • Ab
  • Adicionar à lista

    0 comentários

    Ver todos os comentários

    Conseguiu tocar?

    0 Tocaram 0 Ainda não

    Grave um vídeo tocando Últimos Dias e nos envie!

    00:00 / 00:00
    outros vídeos desta música
    repetir qualidade Automático
    Outros vídeos desta música
    00:00 / 00:00
    Automático

    Cifra Club Pro

    Aproveite o Cifra Club com benefícios exclusivos e sem anúncios
    Cifra Club Pro
    Aproveite o Cifra Club com benefícios exclusivos e sem anúncios
    OK