Cifra Club

Sleep Tight

Kill Hannah

Tab de baixo: Principal
Repeat Two Times Starting at :56
G|--------------------------------|
D|--------------------------------|
A|--------------------------------|x2
D|--999--9-9-999--999--9-9-7~-6~--|

G|------------------------------------------------------------|
D|------------------------------------------------------------|
A|-000--0-0-000---000--0-0-7~-6~------------------------------|
D|--------------------------------222--2-2-222---222--2-2-222-|

Then
G|--------------------------------|
D|--------------------------------|
A|--------------------------------|x2
D|--999--9-9-999--999--9-9-999----|
00:00 / 00:00
Outros vídeos desta música
Repetir
Outros vídeos desta música
Composição de Mat Devine
112 exibições

0 comentários

Ver todos os comentários

Conseguiu tocar?

0 Tocaram 0 Ainda não

Grave um vídeo tocando Sleep Tight e nos envie!

00:00 / 00:00

Cifra Club Pro

Aproveite o Cifra Club com benefícios exclusivos e sem anúncios
Cifra Club Pro
Aproveite o Cifra Club com benefícios exclusivos e sem anúncios
OK