Cifra Club

Aprenda

Under The Milky Way

Kill Hannah

Cifra: Principal (violão e guitarra)
tom: G
Verse:
e|----------------------0--------3------|
B|--1----------3--------1--------3------|
G|--2----------2--------2--------0------|
D|--2----------2--------3--------0------|x10
A|--0----------0--------0--------2------|
E|-------------------------------3------|

Chorus:
e|--3----------0--------3--------0------|
B|--3----------1--------3--------1------|
G|--0----------2--------0--------2------|
D|--0----------3--------0--------3------|
A|--2----------0--------2--------0------|
E|--3-------------------3---------------|

Verse:
e|----------------------0--------3------|
B|--1----------3--------1--------3------|
G|--2----------2--------2--------0------|
D|--2----------2--------3--------0------|x4
A|--0----------0--------0--------2------|
E|-------------------------------3------|

Guitar two
e|---------------------------5----------|
B|-----------------------8-5---8-8/10---|
G|--2-4-7-5-4-5-2~--2-4-----------------|
D|--------------------------------------|x4
A|--------------------------------------|
E|--------------------------------------|

Chorus:
e|--3----------0--------3--------0------|
B|--3----------1--------3--------1------|
G|--0----------2--------0--------2------|
D|--0----------3--------0--------3------|x2
A|--2----------0--------2--------0------|
E|--3-------------------3---------------|

Solo:
Guitar One
e|----------------------------------------12-------12---------------------|
B|----/13-13-13p11h13-15---------------------10-10----10-10-10-8-10h12p10-|
G|-----------------------12-12-12-10h12-----------------------------------|
D|------------------------------------------------------------------------|
A|------------------------------------------------------------------------|
E|------------------------------------------------------------------------|

e|-------------------------------------12-------12--------------------11---|
B|-/13-13-13p11h13-15---------------------10-10----10-10-10h12h1311p10---13|
G|--------------------12-12-12-10h12---------------------------------------|
D|-------------------------------------------------------------------------|
A|-------------------------------------------------------------------------|
E|-------------------------------------------------------------------------|

e|--------------------------15-15-15-13h15-15--12-------12----------------|
B|-12-10----/13-13-13p11h13------------------------10-10----10-10-10-8----|
G|-------12---------------------------------------------------------------|
D|------------------------------------------------------------------------|
A|------------------------------------------------------------------------|
E|------------------------------------------------------------------------|

e|------------------------------------------12-------12--------------------|
B|-10h12p10/13-13-13p11h13-15------------------10-10----10-10-10-8-10h12p10|
G|----------------------------12-12-12-10h12-------------------------------|
D|-------------------------------------------------------------------------|
A|-------------------------------------------------------------------------|
E|-------------------------------------------------------------------------|

e|--------------------15-15-15-15-15-17-17-17-17-17-17-17-17-17-17--------|
B|----/13-13-13p11h13-----------------------------------------------------|
G|------------------------------------------------------------------------|
D|------------------------------------------------------------------------|
A|------------------------------------------------------------------------|
E|------------------------------------------------------------------------|

Guitar Two
e|----------------------------------------|
B|----------------------------------------|
G|---5-5-555------------------------------|
D|---5-5-555-5-55-5555-7-7-777-7-77-7777--|x4
A|---3-3-333-5-55-5555-7-7-777-7-77-7777--|
E|-----------3-33-3333-5-5-555-5-55-5555--|

Outro:
e|----------------------0--------3------|
B|--1----------3--------1--------3------|
G|--2----------2--------2--------0------|
D|--2----------2--------3--------0------|x8
A|--0----------0--------0--------2------|
E|-------------------------------3------|

I havent figured out the outro solo yet.
sorry.
Composição de Karin Jansson / Steve Kilbey
506 exibições
    • ½ Tom
    • A
    • Bb
    • B
    • C
    • Db
    • D
    • Eb
    • E
    • F
    • F#
    • G
    • Ab
  • Adicionar à lista

    0 comentários

    Ver todos os comentários

    Conseguiu tocar?

    0 Tocaram 0 Ainda não

    Grave um vídeo tocando Under The Milky Way e nos envie!

    00:00 / 00:00
    Outros vídeos desta música
    Repetir Qualidade Automático
    Outros vídeos desta música
    00:00 / 00:00
    Automático

    Cifra Club Pro

    Aproveite o Cifra Club com benefícios exclusivos e sem anúncios
    Cifra Club Pro
    Aproveite o Cifra Club com benefícios exclusivos e sem anúncios
    OK