Notificações Amigos pendentes

      Kina Grannis

      Valentine

      836 exibições
      Tom: A
      
         A
      E|------------------------------|
      B|---2--2---------2--2----------|
      G|---2----2-------2----2--------|
      D|---2------------2-------------|
      A|-0----0----0-0-----0----------|
      E|------------------------------|
      
      
         E
      E|------------------------------|
      B|-----0---0---------0--0-------|
      G|-----1------1------1-----1----|
      D|-----2-------------2----------|
      A|-2-2-----2-----2-2----2-------|
      E|------------------------------|
      
      
         F#m
      E|------------------------------|
      B|------------------------------|
      G|-----2--2---------2--2--------|
      D|-----4----4-------4----4------|
      A|-----4------------4-----------|
      E|-2-2----2-----2-2----2--------|
      
      
          D
      E|------2--2---------2--2-------|
      B|------3-----3------3-----3----|
      G|------2------------2----------|
      D|--0-0----0-----0-0----0-------|
      A|------------------------------|
      E|------------------------------|
      
      A          E
      Love, it's a special day.
                 F#m
      We should celebrate
          D
      And appreciate
      
      Pré-Refrão:
      
         A
      E|-------------|
      B|-----2--2----|
      G|-----2----2--|
      D|-----2-------|
      A|-0-0----0----|
      E|-------------|
      
      
         E
      E|-------------|
      B|-----0---0---|
      G|-----1-----1-|
      D|-----2-------|
      A|-2-2-----2---|
      E|-------------|
      
      
         F#m
      E|-------------|
      B|-------------|
      G|-----2---2---|
      D|-----4-----4-|
      A|-----4-------|
      E|-2-2-----2---|
      
      
         D
      E|-----2--2----|
      B|-----3-----3-|
      G|-----2-------|
      D|-0-0----0----|
      A|-------------|
      E|-------------|
      
           A       E        F#m              D
      That you and me found something pretty neat
            A          E         F#m        ( D )
      And i know some say this day is arbitrary
      
          D
      E|---------2---|
      B|-------3-----|
      G|-----2-------|
      D|-0-0---------|
      A|-------------|
      E|-------------|
      
      
      Refrão:
           A                             E
      but it's a good excuse to put our love to use
                  F#m              D       A
      baby i know what to do, baby i, i will love you
            E              F#m         D
      i'll love you, i'll love you.
      
      2ª parte:
      
         A
      E|------------------------------|
      B|---2--2---------2--2----------|
      G|---2----2-------2----2--------|
      D|---2------------2-------------|
      A|-0----0----0-0-----0----------|
      E|------------------------------|
      
      
         E
      E|------------------------------|
      B|-----0---0---------0--0-------|
      G|-----1------1------1-----1----|
      D|-----2-------------2----------|
      A|-2-2-----2-----2-2----2-------|
      E|------------------------------|
      
      
         F#m
      E|------------------------------|
      B|------------------------------|
      G|-----2--2---------2--2--------|
      D|-----4----4-------4----4------|
      A|-----4------------4-----------|
      E|-2-2----2-----2-2----2--------|
      
      
          D
      E|------2--2---------2--2-------|
      B|------3-----3------3-----3----|
      G|------2------------2----------|
      D|--0-0----0-----0-0----0-------|
      A|------------------------------|
      E|------------------------------|
      
        A    E
      love, i don't need those things
         F#m
      i don't need no ring
         D
      i don't need anything
      
      Pré-Refrão:
           A        E         F#m          D
      but you with me, cause in your company
              A           E             F#m  D
      i feel happy oh so happy and compleeeete
      
      *Nesse pré-refrão toque de novo o acabamento na nota D.
      
      Refrão:
          A                              E
      and it's a good excuse to put our love to use
                  F#m              D       A
      baby i know what to do, baby i, i will love you
            E              F#m         D
      i'll love you, i'll love you.
      
      Final:
          A                E
      so won't you be my honey bee
        F#m       D
      giving me kisses all the time
          A        E           F#m      D
      be mine, be my valentine
      
         A                E
      so won't you be my honey bee
        F#m        D
      giving sweet kisses all the time
         A         E       F#m
      be mine, be my valentine
      
      D             F#m
      Oh, oh, oh, oh, oh.
           E            D
      Be my... valentine.
         E
      E|------|
      B|-0-0--|
      G|-1-1--|
      D|-2-2--|
      A|-2-2--|
      E|------|
      
         D
      E|-------2-----------|
      B|-----3-----3---3---|
      G|---2---------2-----|
      D|-0---------------0-|
      A|-------------------|
      E|-------------------|
      
      
        Composição: Kina GrannisColaboração e revisão:
        • juh_lopes

        Comentários 0

        140 .
        140 cancelar

        conseguiu tocar?

        covers

        Grave um vídeo tocando Valentine e mande pra gente!

        Ex.: http://www.youtube.com/watch?v=0IvSvIwGdwk
        ver covers de outras músicas »
        0:00 / 0:00

        Capítulos

          2 versões de violão dificuldade exibições contribuição e correção
          2 versões de guitarra dificuldade exibições contribuição e correção
          2 versões de cavaco dificuldade exibições contribuição e correção
          2 versões de teclado dificuldade exibições contribuição e correção
          play/pausefechar subir/descer velocidade
          6ª corda E5ª corda A4ª corda D3ª corda G2ª corda B1ª corda E
            acordes
            publicidade
            fechar
            ok