Enviar cifraEntrar

Stand By Me

Ben E. King

Tab de baixo: Principal
exibições 72.819
Introdução:

G|---------------------------------------------------
D|-7-7-7---6-7-7-7-7-6-4-4---4-4-4---------4---------
A|-------7-----------------7-------7-5-5-5---7-7-----
E|---------------------------------------------------

G|---------------------------------------------------
D|---6-7-7---6-7-7-----------------------------------
A|-7-------7-----------------------------------------
E|---------------------------------------------------


Groove da música:

G|---------------------------------------------------
D|---6-7-7---6-7-7-7-6-4-4---4-4-4--------4----------
A|-7-------7---------------7-------7-5-5-5---7-7-----
E|---------------------------------------------------

G|---------------------------------------------------
D|---6-7-7---6-7-7-----------------------------------
A|-7-------7-----------------------------------------
E|---------------------------------------------------

When the night has come
And the land is dark
And the moon is the only light we'll see
No I won't be afraid, no I won't be afraid
Just as long as you stand, stand by me

And darling, darling stand by me, oh now now
Stand by me
Stand by me, stand by me

If the sky that we look upon
Should tumble and fall
And the mountains should crumble to the sea
I won't cry, I won't cry, no I won't shed a tear
Just as long as you stand, stand by me

And darlin', darlin', stand by me, oh stand by me
Stand by me, stand by me, stand by me-e, yeah

Whenever you're in trouble won't you stand by me,
Oh now now stand by me
Oh stand by me, stand by me, stand by me

Darlin', darlin', stand by me-e, stand by me
Oh stand by me, stand by me, stand by me.
  • 1
  • 2
  • 3
  • 4
  • 5
  • 6
  • 7
  • 8
  • 9
  • 10
  • 11
  • 12

    0 comentários

      mostrar mais comentários

      Conseguiu tocar?

      35tocaram0ainda não

      Grave um vídeo tocando Stand By Me e mande pra gente!

      00:00 / 00:00
      outros vídeos desta música
      repetirqualidadeautomática
      • automática
      Outro vídeos desta música
        Capítulos
        • Início
        • Tocando a música
        • Ensinando Introdução
        • Ensinando Variações no Groove
        • Encerramento
        00:00 / 00:00
        automática
        • automática
        Acordes para:violão e guitarra
        dificuldadeexibiçõescontribuições
        1 versão de Tab de baixoexibiçõescontribuições
        fecharplay/pause subir/descer velocidade
        fechar
        OK
        Feedback