Cifra Club

Around Your Heart

Kittie

Cifra: Principal (violão e guitarra)
tom: F#
(intro 2x)
D |--------------------------|---------------------------|-------------------|
A |--------------------------|---------------------------|-------------------|
F |--------------------------|---------------------------|-------------------|
C |--------------------------|---------------------------|-------------------|
G |--------------------------|---------------------------|-------------------|
C |-5-8-8-7-7-3-3-5-55555555-|-5-8-8-7-7-3-3-1-111111111-|-5-8-8-7-7-3-3-5---|
                  pm------                   pm----------------------------|

On this part the verse im not sure of the pm'd note i think i just heard wrong..

(verse)
D |-------------------|-----------------------------------------------|
A |-------------------|-----------------------------------------------|
F |-------------------|-----------------------------------------------|
C |-------1-1---1-1-1-|-----------------------------------------------|
G |-5-5---1-1---1-1-1-|---------------------5----------1----1---------|
C |-5-5---1-1---1-1-1-|-8-8-7-7-3-3-5-55555555555555555111111111111---|
             pm                     pm---- ---------- ---- ---------|

(2x)
D |----------------------------------------------------------|-----------------|
A |----------------------------------------------------------|-----------------|
F |----------------------------------------------------------|-----------------|
C |----------------------------------------------------------|-----------------|
G |---------------------5----------------------------1-------|-----------------|
C |-8-8-7-7-3-3-5-5555555555555-8-8-7-7-3-3-1-11111111111111-|-8-8-7-7-3-3-5---|
                pm---- ------               ------- -------------------------|

(verse) (for second verse)
                             (repeat until ending
D |---------------------------|-----------------------------------|
A |---------------------------|-----------------------------------|
F |---------------------------|-----------------------------------|
C |---------------------------|-----------------------------------|
G |-5-555-3-1-111-3-5-555-3-1-|-------------------------7---------|
C |-5-555-3-1-111-3-5-555-3-1-|-7-10-10-9-9-5-5-7-7777777777777---|
                                                pm---- ---------|
(outro)
D |-------------------------------|-----------------------|
A |-------------------------------|-----------------------|
F |-------------------------------|-----------------------|
C |-------------------------------|-7---\0----------------|
G |-----------------------2-------|-7---\0----------------|
C |-10-10-9-9-5-5-2-2222222222222-|-7---\0----------------|
                  pm---- -------------------------------|
Composição de Mercedes Lander / Morgan Lander
Colaboração e revisão:
  • Hellektra
168 exibições
    • ½ Tom
    • A
    • Bb
    • B
    • C
    • Db
    • D
    • Eb
    • E
    • F
    • F#
    • G
    • Ab
  • Adicionar à lista

    0 comentários

    Ver todos os comentários

    Conseguiu tocar?

    0 Tocaram 0 Ainda não

    Grave um vídeo tocando Around Your Heart e nos envie!

    00:00 / 00:00
    Outros vídeos desta música
    Repetir Qualidade Automático
    Outros vídeos desta música
    00:00 / 00:00
    Automático

    Cifra Club Pro

    Aproveite o Cifra Club com benefícios exclusivos e sem anúncios
    Cifra Club Pro
    Aproveite o Cifra Club com benefícios exclusivos e sem anúncios
    OK