Cifra Club

Into The Darkness

Kittie

Cifra: Principal (violão e guitarra)
tom: F (forma dos acordes no tom de G) Afinação: D G C F A D
(INTRO)

D|----------------------------------------------|
A|----------------------------------------------|
F|--9----|------5----|------|-7-----------------|
C|--x----|16x---x----|-16x--|-x--16x------------|
G|--7----|------3----|------|-5-----------------|
C|----------------------------------------------|

D|----------------------------------------------|
A|----------------------------------------------|
F|-----------------------------5-5-5------------|2x
C|-0-0-0-5/4--0--0-0-0-5/4--0--5-5-5------------|
G|-0-0-0-5/4--0--0-0-0-5/4--0--3-3-3------------|
C|-0-0-0-5/4--0--0-0-0-5/4--0-------------------|
 PM. . .         . . .

VERSE

D|----------------------------------------------|
A|----------------------------------------------|
F|----------------------------------------------|
C|-2-2-2-2-2-2-2-4-2-2-2-2-2-2-2-2--------------|2x 
G|-2-2-2-2-2-2-2-4-2-2-2-2-2-2-2-2--------------|      e 2, vc pode alternar fazendo 2h4-2-2h4...
C|-2-2-2-2-2-2-2-4-2-2-2-2-2-2-2-2--------------|             |
 PM  . . . . . .     . . . . . . .                            |
                                                              |
D|----------------------------------------------|             |
A|----------------------------------------------|             |
F|----------------------------------------------|2x 
C|-7-7-7-7-7-7-7-9-7-5-7-5-7-5------------------|
G|-7-7-7-7-7-7-7-9-7-5-7-5-7-5------------------|
C|-7-7-7-7-7-7-7-9-7-5-7-5-7-5------------------|
 PM  . . . . . .     . . . . .

D|----------------------------------------------|
A|----------------------------------------------|
F|----------------------------------------------|
C|-2-2-2-2-2-2-2-4-2-2-2-2-2-2-2-2--------------|2x
G|-2-2-2-2-2-2-2-4-2-2-2-2-2-2-2-2--------------|
C|-2-2-2-2-2-2-2-4-2-2-2-2-2-2-2-2--------------|
 PM  . . . . . .     . . . . . . .

D|----------------------------------------------|
A|----------------------------------------------|
F|----------------------------------------------|2x
C|-7-7-7-7-7-7-7-9-7-7-7-7-7-7-7-7-7------------|
G|-7-7-7-7-7-7-7-9-7-7-7-7-7-7-7-7-7------------|
C|-7-7-7-7-7-7-7-9-7-7-7-7-7-7-7-7-7------------|
 PM  . . . . . .     . . .

PRÉ CHORUS

D|----------------------------------------------|
A|----------------------------------------------|
F|-------------------5-5-5-7-7-7----------------|
C|-0-0-0-5-5-5-4-4-4-5-5-5-7-7-7----------------|
G|-0-0-0-5-5-5-4-4-4-3-3-3-5-5-5----------------|
C|-0-0-0-5-5-5-4-4-4----------------------------|

CHORUS

D|-----------------------------------------------
A|-----------------------------------------------
F|-7/--|--9-|-----|--5-|-----|--7-|--------------
C|-7/--|--9-|-16x-|--5-|-16x-|--7-|-16x----------
G|-5/--|--7-|-----|--3-|-----|--5-|--------------
C|-----------------------------------------------

D|----------------------------------------------|
A|----------------------------------------------|
F|-----------------------------5-5-5------------|2x
C|-0-0-0-5/4--0--0-0-0-5/4--0--5-5-5------------|
G|-0-0-0-5/4--0--0-0-0-5/4--0--3-3-3------------|
C|-0-0-0-5/4--0--0-0-0-5/4--0-------------------|
 PM. . .         . . .

ANTES DO SOLO

D|------------------------------------------------|
A|------------------------------------------------|
F|------------------------------------------------|
C|---6~-----2---5--------------------------------|
G|---6~-----2---5--------------------------------|
C|---6~-----2---5--------------------------------|
 PM  .      .   .

SOLO

D|-------------------------------------------------
A|-------------------------------------------------
F|------------8h9h8----4----7----------8h9h8----4--
C|-1/6-9-8-6---------2--2/5---5--6-9-8-6-------2---
G|-------------------------------------------------
C|-------------------------------------------------

D|------------------------------------------------|
A|------------------------------------------------|
F|------7---(8)~~---------------------------------|
C|-2/5-----5--------------------------------------|
G|------------------------------------------------|
C|------------------------------------------------|

ANTES DO OUTRO REFRÃO

D|------------------------------------------------|
A|------------------------------------------------|
F|-------------------5-5-5/7-7-7------------------|
C|-0-0-0-5-5-5-4-4-4-5-5-5/7-7-7------------------|
G|-0-0-0-5-5-5-4-4-4-3-3-3/5-5-5------------------|
C|-0-0-0-5-5-5-4-4-4------------------------------|

D|------------------------------------------------|
A|------------------------------------------------|
F|-------------------7-7-7/9-9-9------------------|
C|-2-2-2-7-7-7-6-6-6-7-7-7/9-9-9------------------|
G|-2-2-2-7-7-7-6-6-6-5-5-5/7-7-7------------------|
C|-2-2-2-7-7-7-6-6-6------------------------------|

ESTE REFRÃO É DIFERENTE DO ANTERIOR

D|-----------------------------------------------
A|-----------------------------------------------
F|-9/--|--11-|-----|--7-|-----|--9-|-------------
C|-9/--|--11-|-16x-|--7-|-16x-|--9-|-16x---------
G|-7/--|---9-|-----|--5-|-----|--7-|-------------
C|-----------------------------------------------

D|----------------------------------------------|
A|----------------------------------------------|
F|-----------------------------7-7-7------------|2x
C|-2-2-2-7/6--2--2-2-2-7/6--2--7-7-7------------|
G|-2-2-2-7/6--2--2-2-2-7/6--2--5-5-5------------|
C|-2-2-2-7/6--2--2-2-2-7/6--2-------------------|
 PM. . .         . . .

Até o final

FIM

D|-----------------------------------------------
A|-----------------------------------------------
F|-9-11------------------------------------------
C|-9-11------------------------------------------
G|-7--9------------------------------------------
C|-----------------------------------------------
00:00 / 00:00
Outros vídeos desta música
Repetir
Outros vídeos desta música
Compositor não encontrado.
Colaboração e revisão:
  • Pedro Henrique
  • Patricia Costa
7.884 exibições
    • ½ Tom
    • A
    • Bb
    • B
    • C
    • Db
    • D
    • Eb
    • E
    • F
    • F#
    • G
    • Ab
  • Adicionar à lista

    0 comentários

    Ver todos os comentários

    Conseguiu tocar?

    0 Tocaram 0 Ainda não

    Grave um vídeo tocando Into The Darkness e nos envie!

    Entre para oCifra Club PRO

    Tenha acesso a benefícios exclusivos no App e no Site

    • Chega de anúncios

    • Prioridade de compra em lançamentos

    • Mais recursos no app do Afinador

    • Atendimento Prioritário

    • Descontos nos produtos Cifra Club

    • Ajude a produzir mais conteúdo

    00:00 / 00:00

    Cifra Club Pro

    Aproveite o Cifra Club com benefícios exclusivos e sem anúncios
    Cifra Club Pro
    Aproveite o Cifra Club com benefícios exclusivos e sem anúncios
    OK