Enviar cifraEntrar

Nova criatura

Kleber Lucas

Cifra: Principal
exibições 345.925
Tom: A
Intro 2x: B9  F#  A  E

B9            F#
A minha vida é tua vida
A              E
Tudo que sou é totalmente teu Senhor
B9                F#
O meu presente e meu futuro te entreguei
A               E
E o meu passado afoguei
B9                     F#
No mar do esquecimento do Senhor
A                    E
Nova criatura eu sou, nova criatura

B9                   F#
Eu não sou tudo o que você precisa,
A                               E
Ainda não sou tudo aquilo que eu queria ser
B9                          F#
Mais uma coisa eu sou, não abro mão não,
A                  E
Nova criatura sou, nova criatura

B  F#      G#m            E
Ah! eu sou nova criatura, nova criatura
B  F#      G#m            E
Ah! eu sou nova criatura, nova criatura eu sou

(Intro)

B     F#                 G#m          E
Ah! aquele que está em Cristo já morreu pro mundo
B     F#                G#m             E
Ah! aquele que está em Cristo vive pra Deus sim

(Refrão)

Interlúdio


E|--------------------------------------------------|
B|--------------------------------------------------|
G|--------------------------------------------------|
D|-------0---2-0---4-4-3-3-2-0--------0---2-0-------|
A|---0h2---2-----0--------------0-2-2---2-----0-2---|
E|--------------------------------------------------|


Solo da guitarra: (G# A A# B C C#   E   F#)


E|------------------------------------------------| 
B|-9-10-11-12-9--12b14~--4/6-7-9-7-6--------------| 
G|----------------------------------6--8/10--6-6~-| 
D|-----------------------------------6------------| 
A|------------------------------------------------| 
E|------------------------------------------------| 


E|------6-8-9-9-7-5-4-7-5-4-------------| 
B|-6-7-9-------------------7-5-7b9-5-5~-| 
G|--------------------------------------| 
D|--------------------------------------| 
A|--------------------------------------| 
E|--------------------------------------| 


E|----4-5-7-5-7-9-7-9-11-9-11-12-11-12-14-12-14-16-14-16-17-| 
B|-5-7------------------------------------------------------| 
G|----------------------------------------------------------| 
D|----------------------------------------------------------| 
A|----------------------------------------------------------| 
E|----------------------------------------------------------| 


E|-16-17-19-17-19-19b21-19b21-19b21-19b21~~-|| 
B|------------------------------------------|| 
G|------------------------------------------|| 
D|------------------------------------------|| 
A|------------------------------------------|| 
E|------------------------------------------||


(Refrão)
  • 1
  • 2
  • 3
  • 4
  • 5
  • 6
  • 7
  • 8
  • 9
  • 10
  • 11
  • 12

    0 comentários

      mostrar mais comentários

      Conseguiu tocar?

      28tocaram0ainda não

      Grave um vídeo tocando Nova criatura e mande pra gente!

      00:00 / 00:00
      outros vídeos desta música
      repetirqualidadeautomática
      • automática
      Outro vídeos desta música
        00:00 / 00:00
        automática
        • automática
        1 versão de Tab de baixoexibiçõescontribuições
        2 versões de Guitar Proformatodownloadscontribuição
        fecharplay/pause subir/descer velocidade
          acordes
          fechar
          OK
          Feedback