Cifra Club

Amenizar

Konai

Cifra: Principal (violão e guitarra)
tom: G
[Intro] C  C7M  G  Em  G

E|-------------------------------------------|
B|--------3--------------------0-------------|
G|------0-----0---0----------0-----0---0-----|
D|----2---------2----------2---------2-------|
A|--3--------------------3-------------------|
E|-------------------------------------------|

E|-------------------------------------------|
B|--------3--------------------0-------------|
G|------0-----0---0----------0-----0---0-----|
D|----4---------2----------4---------2-------|
A|--5--------------------5-------------------|
E|-------------------------------------------|

E|-------------------------------------------|
B|-------------------------------------------|
G|--------0--------------------0-------------|
D|------4-----4---4----------4----4---4------|
A|----2---------2----------2--------2--------|
E|--0--------------------0-------------------|

E|-------------------------------------------|
B|-------------------------------------------|
G|--------0--------------------0-------------|
D|------4-----4---4----------4----4---4------|
A|----2---------2----------2--------2--------|
E|--3--------------------3-------------------|

C                              C7M
 Cê tá pensando em mim enquanto

Eu tô pensando em você
D
 Não quero que haja o fim
                               Em
Pra gente entender que se gosta

E eu não quero mais ficar distante
 G
Queria voltar tudo como antes
C        C7M                                   D
 Antes da gente estragar tudo que já foi um dia

Antes de você mudar e ficar distante
                      Em
Como disse que não faria, como disse que não faria
                      G                            C7M  D
Como disse que não faria, você disse que não faria

C7M
 Não é mais sobre nós
         Am
É sobre eu querer seu bem
                  Em  
Mas bem longe de mim vai ser melhor
                 G                                C7M
Pode confiar que eu não sou tão bom quanto te pareceu

Não é mais sobre nós
         Am
É sobre eu querer seu bem
                  Em
Mas bem longe de mim vai ser melhor
                 G                                C7M 
Pode confiar que eu não sou tão bom quanto te pareceu
                Am
Quanto te pareceu
              Em  G
Vai ser melhor

 C7M
Falava isso pra amenizar

Mas sei que a culpa tá toda em mim
              Em                 
Eu não quero mais ver você chorar
                                
Por toda a merda que um dia eu fiz
    C7M
Eu quero tanto que a gente se resolva mais

Isso pode ser se distanciar
D
 E até quando não parecer
                                                           Em
Eu vou te amar de longe, pode escrever pra mim se tu precisar

E eu não quero mais ficar distante
G                           
 Queria voltar tudo como antes
C
 Antes da gente estragar tudo que já foi um dia
   D
Antes de você mudar e ficar distante
                      C7M
Como disse que não faria, como disse que não faria
                       D                           Em  G
Como disse que não faria, você disse que não faria

C7M
 Não é mais sobre nós
         Am
É sobre eu querer seu bem
                  Em
Mas bem longe de mim vai ser melhor
                 G                                C7M
Pode confiar que eu não sou tão bom quanto te pareceu

Não é mais sobre nós
         Am
É sobre eu querer seu bem
                  Em
Mas bem longe de mim vai ser melhor
                  G                                C7M
Pode confiar que eu não sou tão bom quanto te pareceu

                                                   Am
Quero mais, na vida a gente sempre pode se encontrar
                                                Em
Só eu sei o quanto é frio do outro lado da porta
                                            G
Espero que cê fique bem e encontre seu lugar
                                                  C7M  
Mas vai ciente de que pra sempre em mim cê tem morada
                                  D
Sou totalmente seu, totalmente seu
                                  Em
Sou totalmente seu, totalmente seu
00:00 / 00:00
Outros vídeos desta música
Repetir
Outros vídeos desta música
Composição de Konai
Colaboração e revisão:
  • Gaspell
  • Aguiar Eduardocraft
  • Arthur Atos
7.526 exibições
    • ½ Tom
    • A
    • Bb
    • B
    • C
    • Db
    • D
    • Eb
    • E
    • F
    • F#
    • G
    • Ab
  • Adicionar à lista

    0 comentários

    Ver todos os comentários

    Conseguiu tocar?

    8 Tocaram 3 Ainda não

    Grave um vídeo tocando Amenizar e nos envie!

    Entre para oCifra Club PRO

    Tenha acesso a benefícios exclusivos no App e no Site

    • Chega de anúncios

    • Prioridade de compra em lançamentos

    • Mais recursos no app do Afinador

    • Atendimento Prioritário

    • Descontos nos produtos Cifra Club

    • Ajude a produzir mais conteúdo

    00:00 / 00:00

    Cifra Club Pro

    Aproveite o Cifra Club com benefícios exclusivos e sem anúncios
    Cifra Club Pro
    Aproveite o Cifra Club com benefícios exclusivos e sem anúncios
    OK