Cifra Club

Shoots and ladders

KoRn

Cifra: Principal (violão e guitarra)
Selo Cifra Club: esta cifra foi revisada para atender aos critérios oficiais da nossa Equipe de Qualidade.
tom: F#
Bagpipes
d||----------------------------------------------------||
a||--13--------11--------15--------11--------13--------||

d||----------------------------------------------------||
a||------11--------15--------11--------13--------------||

d||--12--------10--------13--------10--------12--------||
a||--13--------11--------15--------11--------13--------||

d||------15---13--15---------15--17--15--13------------||
a||--13------------------13----------------15----------||

d||------15---13--15---------13------------------------||
a||--13------------------13------15----13--15--13------||

(band enters)
d||-------------------------15-------------------------||    Repeat this riff
a||--13------------------------------------------------||


C||--------------------------||
G||--3-3--------3-3---3-3----||         Listen to album to get the rhythm
D||--3-3--------3-3---3-3----||
A||--1-1--------1-1---1-1----||

F||--------------------------||
C||--5^----------5^----------||    Bend up 1/4 step, then release
G||--------------------------||

Verse Riff
F||--------------------------||
C||------5^------------------||
G||--5-----------------------||
D||--5-----------------------||
A||--3-----------------------||


Chorus Riff
C||--------------------------------------------||
G||--5----------5----------5----------5-4-3----||
D||--5----------5----------5----------5-4-3----||
A||--3---5-4-3--3---5-4-3--3---5-4-3--3-2-1----||

Bridge Riff("Knick knack Paddy wack...")
G||-------------------------------------||
D||----------4^3---------------4^3------||   * here you side into 3rd fret
A||--/3--3-3-----4^3----3--3-3-----3^4*-||   when you repeat

Heavier Bridge Riff
G||----------6\5---------------6\5------||
D||--/5------4\3-6\5-----------4\3-5/6--||   *slide into "C" chord as in
A||--/3--3-3-----4\3----3--3-3-----3/4*-||   previous riff

Bridge 2 Riff("Mary had a little lamb...")
C||-----------------------------------||
G||-----------------------------------||
D||------4--5--3--------5--4----------||
A||--44442--3--1----44443--2----------||

Verse Riff substitute
F||--------------------------||
C||------5^------------------||
G||--5-----------------------||
D||--5-------------5--4--3---||
A||--3-------------3--2--1---||

End riff("Knick knack..")
d||--------------------------||
a||------------------15------||
F||------------------14------||  I think Munkey uses the whammy pedal for 
C||------------------12------||  this part along with a flanger of some type.
G||--------------------------||  It might sound better if it was tremolo
D||--------------------------||  picked.
A||--------------------------||

----------------------------------------------------------------------
Outros vídeos desta música
    6.632 exibições
      • ½ Tom
      • A
      • Bb
      • B
      • C
      • Db
      • D
      • Eb
      • E
      • F
      • F#
      • G
      • Ab
    • Adicionar à lista

    Afinação da cifra

    Afinador online

      0 comentários

      Ver todos os comentários

      Entre para o Cifra Club PRO

      Tenha acesso a benefícios exclusivos no App e no Site

      • Chega de anúncios

      • Badges exclusivas

      • Mais recursos no app do Afinador

      • Atendimento Prioritário

      • Aumente seu limite de lista

      • Ajude a produzir mais conteúdo

      Cifra Club Pro

      Aproveite o Cifra Club com benefícios exclusivos e sem anúncios
      Cifra Club Pro
      Aproveite o Cifra Club com benefícios exclusivos e sem anúncios
      OK