Cifra Club

Aprenda

Plano de Fuga

Krawk

Cifra: Principal (violão e guitarra)
tom: E Afinação: Eb Ab Db Gb Bb Eb Capotraste na 1ª casa
Intro:
     C#m                A

E|---4--4--4----------|-----------------------------|
B|---5--5--5----------|-----------------------------|
G|---6--6--6----------|--6--6--6--------------------|
D|--------------------|--7--7--7--------------------|
A|---4-----4---4h6----|--7--7--7--------------------|
E|--------------------|--5-----5----5-4-------------|

    C#m                        A
E|---4--4--4----4-------|-------------------------------|
B|---5--5--5----5-------|-------------------------------|
G|---6--6--6----6-------|---6--6--6----6----------------|
D|--------------6-------|---7--7--7----7----------------|
A|---4-----4----4-------|---7--7--7----7----------------|
E|----------------------|---5-----5----5----------------|

Ela é meu plano de fuga
Me procura na madruga
Me cura com sua loucura
vem, vem, vamos fugir daqui

Levanto da cama, já olho minha dama
Já vejo que ta tudo bem
Não sei o que ela tem
Mas esse sorriso, eu não vi em ninguém

Doce menina, felina, fascina
Do olhar mais zen
Odeia clichês, foge de rotinas
E eu fujo também

Me da um beijo na boca
Deixa eu te levar pra casa
Fecha comigo, que eu fecho contigo
Embaixo dos lençóis, quente igual brasa

Que eu posso ser a cura pra sua bad
E já que nada impede
Lets, go to my bed

Põe gelo no copo
que eu já perdi o foco
Cê é loco, essa mina é demais

Me leva pro quarto e faz
De um jeito que nenhuma faz

E eu num sou santo
Mas me garanto se o papo e nós dois

Ce sabe eu te curto
e o tempo ta curto
Então curte o agora e esquece o depois

Ela é meu plano de fuga
Me procura na madruga
Me cura com sua loucura
vem, vem, vamos fugir daqui


E eu jogo o jogo do ego
finjo que nao me apego
Mas te ver deitada
com essa cara, gata é demais, eu não nego


E o clima já ta very nice
Ela chega bebendo uma ice
Essa mina é classe, A
essa mina é Classe

e eu como sempre metendo mó mala
0 atenção pro que ela fala
Ja chego beijando, ela vai se entregando
E a história começa na sala

ela é do tipo que invade seu mundo
Chega provando que entende do assunto
nosso lance é uma mistura de descaso
com querer "ta" junto

Tu sabe que amanhã
Provavelmente eu não vou te ligar
E eu sei, que tu provavelmente
não vai se importar, também

Mas o amanha é incerto, gata
então deixa pra la
Foca no hoje, para de pose, tira essa roupa e vem ca

Ela é meu plano de fuga
Me procura na madruga
Me cura com sua loucura
vem, vem, vamos fugir daqui
Compositor não encontrado.
Colaboração e revisão:
  • Gabriel Santos
  • Ju Marques
2.875 exibições
    • ½ Tom
    • A
    • Bb
    • B
    • C
    • Db
    • D
    • Eb
    • E
    • F
    • F#
    • G
    • Ab
  • Adicionar à lista

    0 comentários

    Ver todos os comentários

    Conseguiu tocar?

    0 Tocaram 0 Ainda não

    Grave um vídeo tocando Plano de Fuga e nos envie!

    00:00 / 00:00
    Outros vídeos desta música
    Repetir Qualidade Automático
    Outros vídeos desta música
    00:00 / 00:00
    Automático

    Cifra Club Pro

    Aproveite o Cifra Club com benefícios exclusivos e sem anúncios
    Cifra Club Pro
    Aproveite o Cifra Club com benefícios exclusivos e sem anúncios
    OK