Cifra Club

Aprenda

Sede Pra Te Ver

KVSH

Cifra: Principal (violão e guitarra)
Já pensou em usar uma coleção de roupas do Cifra Club? Responda as perguntas abaixo e nos ajude nessa missão! →
tom: B
    E7M
E|----------------------------------|
B|-9--9----9--7--9---7h9-7-7--------|
G|-8--8----8--8--8--------8---------|
D|-9--9----9--9--9------------------|
A|-7-----7----------7---------------|
E|----------------------------------|

     G#m7     B
E|----------------------------------|
B|-4--4---4--2-4------4-------------|
G|-4--4---4--4-4--4h6---6-4---------|
D|-4--4---4--4-4------------6-------|
A|-----------2-2--------------------|
E|-4-----4--------------------------|

    E7M
E|--------------------7h9-7---7-----|
B|-9--9----9--7--9----------9-------|
G|-8--8----8--8--8------------------|
D|-9--9----9--9--9------------------|
A|-7-----7----------7---------------|
E|----------------------------------|

     G#m7     B
E|----------------------------------|
B|-4--4---4--2-4------4-------------|
G|-4--4---4--4-4--4h6---6-4---------|
D|-4--4---4--4-4------------6-------|
A|-----------2-2--------------------|
E|-4-----4--------------------------|

                           E7M
Pena que sobra sede pra te ver
                              G#m7              B
Hoje eu não vou correr sem ter você
                           E7M
O teu lugar são dois: um sim, um não
                        G#m7              B
O meu lugar é um na contramão
                            E7M
mas você sabe que não
Prefiro céu aberto
            G#m7
Roupas no chão
                        B
Selva sem concreto

           E7M
Dois na missão
Tranquilo no certo
                           G#m7              B
Queria novos ares mas é o teu que tá por perto

[Solo] G#m7  B  F#  E

[Final] E7M  E7M(9)  G#m7  B
Compositor não encontrado.
Colaboração e revisão:
24.511 exibições
    • ½ Tom
    • A
    • Bb
    • B
    • C
    • Db
    • D
    • Eb
    • E
    • F
    • F#
    • G
    • Ab
  • Adicionar à lista

    0 comentários

    Ver todos os comentários

    Conseguiu tocar?

    8 Tocaram 6 Ainda não

    Grave um vídeo tocando Sede Pra Te Ver e nos envie!

    00:00 / 00:00
    Outros vídeos desta música
    Repetir Qualidade Automático
    Outros vídeos desta música
    00:00 / 00:00
    Automático

    Cifra Club Pro

    Aproveite o Cifra Club com benefícios exclusivos e sem anúncios
    Cifra Club Pro
    Aproveite o Cifra Club com benefícios exclusivos e sem anúncios
    OK