Cifra Club

El Son Del Dolor

La Cuca

Cifra: Principal (violão e guitarra)
tom: F#
E|--------------------------------------------------------------|
B|--------------------------------------------------------------|
G|--------------------------------------------------------------|
D|--------------------------------------------------------------|
A|----16----14--13-13-----18--16--14| —13-------16----14--13-13---
E|--------------------------------------------------------------|

E|--------------------------------------------------------------|
B|--------------------------------------------------------------|
G|--------------------------------------------------------------|
D|--------------------------------------------------------------|
A|-13/14---13---13/14--13--11-----16---14--13-13----18-16-20-18-|
E|--------------------------------------------------------------|

E|-------------------------12--14-14---12--14-14---12--14-14----|
B|-------------------------12--14-14---12--14-14---12--14-14----|
G|--------------------------------------------------------------|
D|--------------------------------------------------------------|
A|-16---16| —14—13—16—16/18---------------------------------------
E|--------------------------------------------------------------|

E|-12| —14-14---12—14-14----15/17---16—14—16—14--------16--14----
B|-12-14-14---12-14-14-------------------------16/18-----------|
G|-------------------------------------------------------------|
D|-------------------------------------------------------------|
A|-------------------------------------------------------------|
E|-------------------------------------------------------------|

E|-------------12| —14-14---12—14-14---12—14-14---12—14-14--------
B|--14/16------12-14-14---12-14-14---12-14-14---12-14-14--------|
G|---------13---------------------------------------------------|
D|--------------------------------------------------------------|
A|--------------------------------------------------------------|
E|--------------------------------------------------------------|

              esta parte es muy rápida hasta el final
E|-12-14-14----17-16| —14—16—14—17—16—14—16--14-----17-17-17-17---
B|-12-14-14-----------------------------------------------------|
G|--------------------------------------------------------------|
D|--------------------------------------------------------------|
A|--------------------------------------------------------------|
E|--------------------------------------------------------------|

E|--14| —16—14--
B|------------|
G|------------|
D|------------|
A|------------|
E|------------|
00:00 / 00:00
Outros vídeos desta música
Repetir
Outros vídeos desta música
Composição de La Cuca
45 exibições
    • ½ Tom
    • A
    • Bb
    • B
    • C
    • Db
    • D
    • Eb
    • E
    • F
    • F#
    • G
    • Ab
  • Adicionar à lista

    0 comentários

    Ver todos os comentários

    Conseguiu tocar?

    0 Tocaram 0 Ainda não

    Grave um vídeo tocando El Son Del Dolor e nos envie!

    Entre para oCifra Club PRO

    Tenha acesso a benefícios exclusivos no App e no Site

    • Chega de anúncios

    • Prioridade de compra em lançamentos

    • Mais recursos no app do Afinador

    • Atendimento Prioritário

    • Descontos nos produtos Cifra Club

    • Ajude a produzir mais conteúdo

    00:00 / 00:00

    Cifra Club Pro

    Aproveite o Cifra Club com benefícios exclusivos e sem anúncios
    Cifra Club Pro
    Aproveite o Cifra Club com benefícios exclusivos e sem anúncios
    OK