Cifra Club

Aprenda

Mia & Sebastian's Theme

La La Land

Cifra: Principal (violão e guitarra)
tom: E
E|----9-11-12-11-9--------9-11-12-11-9-----------|
B|--9--------------10--10-------------9----------|
G|-----------------------------------------------|
D|-----------------------------------------------|
A|-----------------------------------------------|
E|-----------------------------------------------|

E|----9-11-12-12-11-9------14-12-11-12-11-9------|
B|--9-----------------10--------------------9----|
G|-----------------------------------------------|
D|-----------------------------------------------|
A|-----------------------------------------------|
E|-----------------------------------------------|

E|--17-16-14-16-14---------16-14---14------------|
B|-----------------17-16---------17---17-16-14---|
G|-----------------------------------------------|
D|-----------------------------------------------|
A|-----------------------------------------------|
E|-----------------------------------------------|

E|--17-16-14-16-14-----------16------------------|
B|-----------------17-16-------------------------|
G|------------------------16---------------------|
D|-----------------------------------------------|
A|-----------------------------------------------|
E|-----------------------------------------------|

Compositor não encontrado.
Colaboração e revisão:
  • beatriz paixão
  • Guilherme Roemers
12.192 exibições
    • ½ Tom
    • A
    • Bb
    • B
    • C
    • Db
    • D
    • Eb
    • E
    • F
    • F#
    • G
    • Ab
  • Adicionar à lista

    0 comentários

    Ver todos os comentários

    Conseguiu tocar?

    4 Tocaram 3 Ainda não

    Grave um vídeo tocando Mia & Sebastian's Theme e nos envie!

    00:00 / 00:00
    Outros vídeos desta música
    Repetir Qualidade Automático
    Outros vídeos desta música
    00:00 / 00:00
    Automático

    Cifra Club Pro

    Aproveite o Cifra Club com benefícios exclusivos e sem anúncios
    Cifra Club Pro
    Aproveite o Cifra Club com benefícios exclusivos e sem anúncios
    OK