Cifra Club

Tejedores de Ilusión

La Ley

Cifra: Principal (violão e guitarra)
tom: Am
    E A D G B E
F*  8 8 D D D 8  D= 10

Nota: En el acorde G* solo tocas las cuerdas de E, A y D; y en los acordes
C* y F* solo tocas las cuerdas de A, D y G.

Intro: G*-C*-F* con distor
fill.1
E|-----------------------|---------------------------------------------------------|
B|-----------------------|---------------------------------------------------------|
G|---------5---5/| d----d/0|-------5---5/d-d--d-----9-----7-----5----------5/d--d/0--|
D|--XX5--5-5---5/| d----d/0|--5--5-5---5/d-d--d(x4)-9(x4)-7(x4)-5(x4)-5--5-5/d--d/0--|
A|--XX5--5-3---3/8----8/0|--5--5-3---3/8-8--8-----7-----5-----3-----5--5-3/8--8/0--|
E|--XX3--3---------------|--3--3------------------------------------3--3-----------|

Versos:
En el seguimiento de los acordes de los versos, se hace este fill:
   Am    C     D    D
E|--0-0---0-----2-2--2-2-2-----|
B|--1--1--1-1---3--3-3----3----|
G|--2-----0--0--2----2-----2---|
D|--2-----2-----0----0------0--|
A|--0-----3-----0----0---------|
E|--X-----X-----X----X---------|
00:00 / 00:00
Outros vídeos desta música
Repetir
Outros vídeos desta música
Composição de Bobe Cuevas
1 exibições
    • ½ Tom
    • Am
    • Bbm
    • Bm
    • Cm
    • C#m
    • Dm
    • Ebm
    • Em
    • Fm
    • F#m
    • Gm
    • G#m
  • Adicionar à lista

    0 comentários

    Ver todos os comentários

    Conseguiu tocar?

    0 Tocaram 0 Ainda não

    Grave um vídeo tocando Tejedores de Ilusión e nos envie!

    00:00 / 00:00

    Cifra Club Pro

    Aproveite o Cifra Club com benefícios exclusivos e sem anúncios
    Cifra Club Pro
    Aproveite o Cifra Club com benefícios exclusivos e sem anúncios
    OK