Cifra Club

Aprenda

Clarobscuro

La Vela Puerca

Cifra: Principal (violão e guitarra)
tom: F
Intro x2  (guitarra 1)

E|------0--------0---------------------------|
B|-0h1-------0h1-----------------------------|
G|--------2--------2----0--------------------|
D|------------------------3--2-0-------------|
A|--------------------------------3p0--------|
E|-------------------------------------------|

Intro varias veces(guitarra 2)

E|-------0-0----0---0-------0-0----0---0--|
B|--0-h1------1---1----0-h1------1---1----|
G|----------------------------------------|
D|----------------------------------------|
A|----------------------------------------|
E|----------------------------------------|

<termina asi>e/---5-----5----5------
B|--5--------55-----55-|

Escuchar bien la intro para igualar las 2 guitarras.

Trompetas: F   C   G   Am  (A  guitarra juega con los mismos acordes)


Trompeta:
         F          C         G            Am 
E|--------5----5--7--8---8--7-----5-----------|
B|--4--7-----------------------8------9--7--9-|
G|--------------------------------------------|

         F          C         G                         Am 
E|--------5----5--7--8---8--7----------------------------5-|
B|--4--7-----------------------8--8-8--8--8-8--8--8-8-8----|
G|---------------------------------------------------------|




(los punteitos que les agrego los hace la 2da gtarra)

F                C
D|--0-2-3| Algo oscuro te hace pensar
G                Am
Y eso no corresponde
F                C
Por el miedo te sale mal
G                Am
Y el corazon se te esconde  e/--5----5------
B|----55-----55-|
F                C
La rutina de no saber
G                 Am
Hoy es tu peor apuesta   e/--55--
F                 C
Sin saber como envejecer
G                    Am
Un sentimiento que apesta  e/--5----5------
B|----55-----55-|


(aca la 2da gtarra empieza a hacer un palmute o sonido
apagado q si quieren lo hacen como se los doy yo o en
5ta de las notas originales)

       F            C          G           Am
E|--------------------------------------------------------|
B|--------------------------------------------------------|
G|--xx-10-xx10------------------xx-12-xx12----xx-14-xx14--|
D|--xx-10-xx10----xx-10-xx10----xxx12-xx12----xx-14-xx14--|
A|--xx--8-xx-8----xx-10-xx10----xx-10-xx10----xx-12-xx12--|
E|----------------xx--8-xx-8------------------------------|

     F                    C
Y todas las ruinas entran a brillar
        G                    Am
Es tu sueño quien lleva los hilos
     F                     C
Y llorar de nuevo ya no te hace mal
       G                        Am
Y un dolor te mantiene ahora en vilo


Trompetas: F   C   G    Am 


    Una nube quiere escapar

de su cielo emplomado e/--5----5------
B|----55-----55-|

Y las flores quieren bailar

Sobre el suelo mojado e/--5----5------
B|----55-----55-|

    Hoy el sol quiere iluminar

Ha este mundo en tinieblas

Y ahora un trueno se hace escuchar

Porque perdió la paciencia  e/--5----5------
B|----55-----55-|

(en este verso arpegia la 2da guitarra -sonido acústico-
con los mismos acordes, este arpegio se hace en los
2 versos de “...y las almas libres...” y en el ultimo de
 “...y todas las ruinas...”)

      F                  C
Y las almas libres huyen para un bar
     G                     Am
A tratar de salvar la conciencia
    F                 C
Y todas las olas castigan al mar
      G                      Am
Y ese mar se convierte en violencia

(el arpegio es asi)

          F             C             G            Am
E|--------1-------------3---------------------------5----|
B|------1-------------5---------------3-----------5------|
G|----2-------------5---------------4-----------5--------|
D|--------------------------------5----------------------|
A|----------------3--------------------------------------|
E|--1---------------------------3-------------5----------|

(la gtarra cn disto en el estribillo puede hacer estas 5tas asi):

     Bb        F           C           Dm
G|------------10-xx-10------------------------|
D|--8-xx-8----10-xx-10----10-xx-10----12-xx-12|
A|--8-xx-8-----8-xx-8-----10-xx-10----12-xx-12|
E|--6-xx-6-----------------8-xx--8----10-xx-10|



Para el estribillo una gtarra toka las notas en las 3
primeras cuerdas(tmb toka los puentes)
y la otra hace cmo esta puesto arriba.

    Bb    F    C    Dm
E|--6-----8----8----10--|
B|--6----10----8----10--|
G|--7----10----9----10--|



       Bb               F
       Sera culpa de    todos No encontrar el
  (puente)
E|--5--7--8---|
B|------------| C                Dm
      modo pa poder sentir

      Bb                 F
       Y el que da la anestesia   Rie con

      C                     Dm
               demencia y se escucha morir  e/--13--12--13--


      (la repeticion es = solo q termina asi):

 y se escucha morir  e/----13--12-13--9---



Intro x2 veces (guitarra 1)
                                            Am<con disto>
E|------0--------0-----------------------------------|
B|-0h1-------0h1-------------------------------------|
G|--------2--------2--0------------------------------|
D|----------------------3--2-0--------------55-------|
A|------------------------------3p0---------55-------|
E|------------------------------------------33-------|

(gtarra 2)
E|-------0-0----0---0-------0-0----0---0--|
B|--0-h1------1---1----0-h1------1---1----|
G|----------------------------------------|
D|----------------------------------------|
A|----------------------------------------|
E|----------------------------------------|



Solo    (durante el solo la otra gtarra puede seguir
asiendo las notas F C G Am como
 se las di antes, al mismo tiempo y ritmo que la
 canción)

E|---------------------------------------------------------------|
B|-----------------------------------------------10--------------|
G|--7s9--7--7s9--7--5-7--5-h7------7s9--7--5-7s9----9-7--5-7-----|
D|----------------------------5-7----------------------------5-7-|
A|---------------------------------------------------------------|
E|---------------------------------------------------------------|

E|------------------------------10s12--12-12--12-12-12-12-|
B|--------12-13--10-------10-13---------------------------|
G|--9-12---------------12---------------------------------|
D|--------------------------------------------------------|

E|-----------------------------------10s12-12--15-15--15-15-15--17**|
B|--10-13--12---10-13--12------10-13--------------------------------|
G|--------------------------12--------------------------------------|
D|------------------------------------------------------------------|



Y todas las ruinas entran a brillar

Es tu sueño quien lleva los hilos

Y llorar de nuevo ya no te hace mal

Y un dolor te mantiene ahora en vilo


Y las almas libres huyen para un bar

A tratar de salvar la conciencia

Y todas las olas castigan al mar

Y ese mar se convierte en violencia

Bb            F
Sera culpa de todos
                C                Dm
No encontrar el modo pa poder sentir
Bb                 F
Y el que da la anestesia
          C                     Dm
Rie con demencia y se escucha morir          X2

F           C        Dm
     y se escucha morir      x4 y termina.


Acordes utilizados:
     F    C    G   Am    Bb   F    Dm     C    Dm
E|--1----3----3----5----6-----8----5-----8----10--|
B|--1----5----3----5----6----10----6-----8----10--|
G|--2----5----4----5----7----10----7-----9----10--|
D|--3----5----5----7----8----10----7----10----12--|
A|--3----3----5----7----8-----8----5----10----12--|
E|--1----3----3----5----6-----8----5-----8----10--|



Eso es todo, se la dedico a todos los veleros/as
Cualkier problema me escriben o chateen
Salu2s desde Mendoza.....gracias, de nada,
 perdón (por las dudas) y nos vemos.
PD: Aguante el vIOle!!!!
Composição de Sebastian teysera
50 exibições
    • ½ Tom
    • A
    • Bb
    • B
    • C
    • Db
    • D
    • Eb
    • E
    • F
    • F#
    • G
    • Ab
  • Adicionar à lista

    0 comentários

    Ver todos os comentários

    Conseguiu tocar?

    0 Tocaram 0 Ainda não

    Grave um vídeo tocando Clarobscuro e nos envie!

    00:00 / 00:00
    Outros vídeos desta música
    Repetir Qualidade Automático
    Outros vídeos desta música
    00:00 / 00:00
    Automático

    Cifra Club Pro

    Aproveite o Cifra Club com benefícios exclusivos e sem anúncios
    Cifra Club Pro
    Aproveite o Cifra Club com benefícios exclusivos e sem anúncios
    OK