Cifra Club

Va a Escampar

La Vela Puerca

Cifra: Principal (violão e guitarra)
exibições 17.206
Tom: C
F                 Am              F           Am
Hoy asume lo que venga, sea para bien, o todo mal,
F                        Am               F            Am
y aunque pierda lo que tenga, se va a morder para aguantar.
F                     Am                 F              Am
Hoy que claro ve las cosas, que ayer no vio, ni va a exigir,
F                 Am                F          Am
sobre su pena se posa, quiere entender para seguir.

F                G                    C        G/B       F
Llega la batalla, y contra el estalla, algún día va a escampar,
F                   G                    C     G/B         F
y como sale de ésta, quiere la respuesta, sabe que no es escampar.

C      G              F  G         C          G          F  G
Su paciencia va a montar, todo un circo para verlo desfilar;
C     G            F  G          C           G             F  G
al dolor que supo ser, y al que ahora ya no quiere ver volver.

(solo 2x) Am G F G

F        G          Am   G              F  G          Am  G
Hoy se siente satisfecho, aunque aquel rol, no exista más,
F     G           Am   G          F  G           Am  G
para vida con su pecho, y su canción, vuelve a sonar.
F       G         Am    G          F  G           Am  G
Hoy recibe los aplausos, supo ser sal, y también miel,
F    G             Am   G         F   G        Am  G
y conecta con sus pasos, que resbalar, no cae bien.

F                G                    C        G/B         F
Terminó la guerra, los pies en la tierra, y su mano a un corazón
F                  G                  C      G/B          F
su pensar tranquilo, su pena un olvido, y su alma, una pasión.

F     G           Am   G          F   G       Am  G
Hoy asume lo que venga, sea para bien, o todo mal,
F       G              Am   G             F   G         Am  G
y aunque pierda lo que tenga, se va a morder, para aguantar.

C      G              F  G         C          G          F  G
Su paciencia va a montar, todo un circo para verlo desfilar;
C     G            F  G          C           G             F  G
al dolor que supo ser, y al que ahora ya no quiere ver volver.
C     G            F  G               C             G             F  G
Se refugia en un farol, y entre dos flores que siempre apuntan al sol.
C     G         F  G       C           G             F  G
Así cruza su pared, me sonríe y rompe con su propia red.

(solo 2x) Am G F G

(solo) F G Am G (3x) 
       F G Am Am


E|---------------------|-------------------|-----------------------|
B|-------12v-------13v-|-------13-12-------|-----------------------|
G|---------------------|--------------14-12|-----------------------|
D|----14--------14-----|----14-------------|--10---12b-12----14b-14|
A|---------------------|-------------------|-----------------------|
E|---------------------|-------------------|-----------------------|

E|-------------------------|-----------------------------|---------|
B|-------------------------|-----------------12----------|---------|
G|----12-------------------|---------------------14--9---|------9--|
D|-------15--14--12--------|-------------12------------10|-12v-----|
A|------------------15--14-|--12--14--15-----------------|---------|
E|-------------------------|-----------------------------|---------|

E|---|----------|-----------------------------------|
B|---|----------|-----------------------------------|
G|---|----------|-----------------------------------|
D|-9-|------s10-|------10------12b---12--10--12---10|
A|---|----------|--12------12-----------------------|
E|---|----------|-----------------------------------|


F                G                    C        G/B       F
Llega la batalla, y contra el estalla, algún día va a escampar,
F                   G                    C     G/B         F
y como sale de ésta, quiere la respuesta, sabe que no es escampar.
C      G              F  G         C          G          F  G
Su paciencia va a montar, todo un circo para verlo desfilar;
C     G            F  G          C           G             F  G
al dolor que supo ser, y al que ahora ya no quiere ver volver.
C     G            F  G               C             G             F  G
Se refugia en un farol, y entre dos flores que siempre apuntan al sol.
C     G         F  G       C           G             F  G
Así cruza su pared, me sonríe y rompe con su propia red
Acordes para:
    Composição: Sebastian Teysera Colaboração e revisão:
    • marcos andres

    0 comentários

    mostrar mais comentários

    Conseguiu tocar?

    2 tocaram 1 ainda não

    Grave um vídeo tocando Va a Escampar e mande pra gente!

    00:00 / 00:00
    outros vídeos desta música
    repetir qualidade Automático
    Outros vídeos desta música
    00:00 / 00:00
    Automático
    OK