Cifra Club

Aprenda

Zafar

La Vela Puerca

Cifra: Versão 2 (violão e guitarra)
tom: G
A Contraluz

Tabbed by: Kurai

The basses in the song are played by the guitar until the end of the first
chorus. When the song starts to sound more like an electric guitar the bass

Chords:

   Am    Dm    G
e|-0-----1-----3-|
B|-1-----3-----0-|
G|-2-----2-----0-|
D|-2-----0-----0-|
A|-0-----------2-|
E|-------------3-|

   eBGDAE
   ------
Am|01220X
Dm|1320XX
G |300023

Intro:
e|----0-----0-| \
B|----1-----1-|  \\
G|----2-----2-|   \\\ 
D|-------2----|   ///  x4
A|-0----------|  //
E|------------| /

e|---0---0---0---0---1---1---3---3-| \
B|---1---1---1---1---3---3---0---0-|  \\
G|---2---2---2---2---2---2---0---0-|   \\\
D|-----2-------2---0---0-----------|   ///  x3
A|-0-------0-------------------2---|  //
E|-------------------------3-------| /

e|---0---0---0---0-0-----1-|
B|---1---1---1---1-1-----3-|
G|---2---2---2---2-2-----2-|
D|-----2-------2---2-----0-|
A|-0-------0-------0-------|
E|-------------------------|

Verse:
e|---0---0---0---0---1---1---3---3-| \
B|---1---1---1---1---3---3---0---0-|  \\
G|---2---2---2---2---2---2---0---0-|   \\\
D|-----2-------2---0---0-----------|   ///  x8
A|-0-------0-------------------2---|  //
E|-------------------------3-------| /

Chorus:
e|---0---0---0---0---1---1---3---3-| \
B|---1---1---1---1---3---3---0---0-|  \\
G|---2---2---2---2---2---2---0---0-|   \\\
D|-----2-------2---0---0-----------|   ///  x3
A|-0-------0-------------------2---|  //
E|-------------------------3-------| /

e|---0---0---0---0-0-----1-|
B|---1---1---1---1-1-----3-|
G|---2---2---2---2-2-----2-|
D|-----2-------2---2-----0-|
A|-0-------0-------0-------|
E|-------------------------|

Verse 2 (from now on it sounds more like an electric guitar):
e|---0---0---0---0---1---1---3---3-| \
B|---1---1---1---1---3---3---0---0-|  \\
G|---2---2---2---2---2---2---0---0-|   \\\
D|-----------------0---0-----------|   ///  x8
A|-0-------0-------------------2---|  //
E|-----0-------0-----------3-------| /

Chorus
e|---0---0---0---0---1---1---3---3-| \
B|---1---1---1---1---3---3---0---0-|  \\
G|---2---2---2---2---2---2---0---0-|   \\\
D|-----------------0---0-----------|   ///  x3
A|-0-------0-------------------2---|  //
E|-----0-------0-----------3-------| /

e|---0---0---0---0-0-----1-|
B|---1---1---1---1-1-----3-|
G|---2---2---2---2-2-----2-|
D|-----------------2-----0-|
A|-0-------0-------0-------|
E|-----0-------0-----------|

Bridge:
e|---0---0---0---0---1---1---3---3-| \
B|---1---1---1---1---3---3---0---0-|  \\
G|---2---2---2---2---2---2---0---0-|   \\\
D|-----------------0---0-----------|   ///  x7
A|-0-------0-------------------2---|  //
E|-----0-------0-----------3-------| /

e|---0---0---0---0-0-----1-|
B|---1---1---1---1-1-----3-|
G|---2---2---2---2-2-----2-|
D|-----------------2-----0-|
A|-0-------0-------0-------|
E|-----0-------0-----------|


Verse 3:

e|---0---0---0---0---1---1---3---3-| \
B|---1---1---1---1---3---3---0---0-|  \\
G|---2---2---2---2---2---2---0---0-|   \\\
D|-----------------0---0-----------|   ///  x4
A|-0-------0-------------------2---|  //
E|-----0-------0-----------3-------| /

Chorus:
e|---0---0---0---0---1---1---3---3-| \
B|---1---1---1---1---3---3---0---0-|  \\
G|---2---2---2---2---2---2---0---0-|   \\\
D|-----------------0---0-----------|   ///  x7
A|-0-------0-------------------2---|  //
E|-----0-------0-----------3-------| /


Outro:



Lyrics (taken from the book in the CD "A Contraluz")

Soy de la ciudad con todo lo que ves:
con su ruido, con su gente, consume vejez;
y no puedo evitar el humo que entra hoy,
pero igual sigo creciendo, soy otro carbón,
No voy a imaginar la pena en los demás;
compro aire y, si es puro, pago mucho más;
no voy a tolerar que ya no tengan fe,
que se bajen los brazos, que no haya lucidez.

Me voy, volando por ahí,
y estoy convencido de ir;
me voy, silbando y sin rencor,
y estoy zafando del olor.

Me encontré con la gente que sabe valorar,
que, de turista en la Capital, ha sabido vagar,
y no ha encarado, al fin, la cruda realidad
de respirar hollín, de llorar alquitrán.
Y empiezo a envejecer, sudando mi verdad,
criado pa' toser, con mucha variedad;
y adónde ir a parar, cargando con mi olor;
deberíamos andar desnudos pa' sentirnos mejor.

Me voy, volando por ahí,
y estoy convencido de ir;
me voy, silbando y sin rencor,
y estoy zafando del olor.
Composição de Sebastian Teysera
684 exibições
    • ½ Tom
    • A
    • Bb
    • B
    • C
    • Db
    • D
    • Eb
    • E
    • F
    • F#
    • G
    • Ab
  • Adicionar à lista

    0 comentários

    Ver todos os comentários
    00:00 / 00:00
    Outros vídeos desta música
    Repetir Qualidade Automático
    Outros vídeos desta música
    00:00 / 00:00
    Automático

    Cifra Club Pro

    Aproveite o Cifra Club com benefícios exclusivos e sem anúncios
    Cifra Club Pro
    Aproveite o Cifra Club com benefícios exclusivos e sem anúncios
    OK