Cifra Club

Aprenda

Zafar

La Vela Puerca

Cifra: Versão 6 (violão e guitarra)
tom: C
E|-------------------------------------------------------------|
B|----------------------------0-1-0-1-3--3/5---3--5-3-1-0------|
G|--2---2-4-5-4---2-0-2-----2------------------------------2---|
D|----------------------2------------------------------------2-|
A|-------------------------------------------------------------|
E|-------------------------------------------------------------|

/-------
/-------
/-------
/--0--5-
/-------
/-------


Soy de la ciudad con todo lo que ves:
con su ruido, con su gente, consume vejez;
y no puedo evitar el humo que entra hoy,
pero igual sigo creciendo, soy otro carbón,
No voy a imaginar la pena en los demás;
compro aire y, si es puro, pago mucho más;
no voy a tolerar que ya no tengan fe,
que se bajen los brazos, que no haya lucidez.

(cuando empieza “...Me voy...” el saxo hace un
 pekeño acompañamiento q dura todo el estribillo):

/-----------------------------------------------------------
/--5---5/6------3-5----5/6--3----5---5/6------3-5----5/6--3-
/----5-----5--5------5--------5----5-----5--5------5--------
/-----------------------------------------------------------

Me voy, volando por ahí,
y estoy convencido de ir;
me voy, silbando y sin rencor,
y estoy zafando del olor.

(entra la 2da gtarra haciendo acordes tipo ska q son las mismas
notas q en toda la cancion, se tokan de abajo hacia arriba y
se hacen sonar unikamente las 3 primeras cuerdas)

    Am   Dm     G el G   tmb se puede tocar asi
E|--5-----5-----3---| --7--
B|--5-----6-----3---| --8--
G|--5-----7-----4---| --7--
D|--7-----7-----5---|
A|--7-----5-----5---|
E|--5-----5-----3---|

Me encontré con la gente que sabe valorar,
que, de turista en la Capital, ha sabido vagar,
y no ha encarado, al fin, la cruda realidad
de respirar hollín, de llorar alquitrán.
Y empiezo a envejecer, sudando mi verdad,
criado pa' toser, con mucha variedad;
y adónde ir a parar, cargando con mi olor;
deberíamos andar desnudos pa' sentirnos mejor.

Me voy, volando por ahí,
y estoy convencido de ir;
me voy, silbando y sin rencor,
y estoy zafando del olor.








este es el solo de vientos pa gtarra:


E|--12--10-8-7-8-7------------7-8--8-10-8--7-13-12-10-10h12-12-|
B|------------------8-5--5/6-----------------------------------|
G|-------------------------------------------------------------|
D|-------------------------------------------------------------|

/--10-12-15---13-12-10-13-12-----------17-15-10-12-12--
/-----------------------------13-12-13-----------------
/------------------------------------------------------
/------------------------------------------------------

/--10-8-7---8--8-7-5---8-7--------------1p0---1-3-
/--------10----------8-----8-5---3----------3-----
/----------------------------------0-2------------
/-------------------------------------------------

/---------5-8-7-------7--8-10/12-10--7-8-10--12-15-13-12-
/--5-6-8---------8-10-------------------------------------
/---------------------------------------------------------
/---------------------------------------------------------

E|--17---15---17-|
B|---------------|


Soy de la ciudad con todo lo que ves:
con su ruido, con su gente, consume vejez;
y no puedo evitar el humo que entra hoy,
pero igual sigo creciendo, soy otro carbón,

No voy a imaginar la pena en los demás;
compro aire y, si es puro, pago mucho más;
no voy a tolerar que ya no tengan fe,
que se bajen los brazos, que no haya lucidez.


Me voy, volando por ahí,
y estoy convencido de ir;
me voy, silbando y sin rencor,
y estoy zafando del olor.
Composição de Sebastian Teysera
1 exibições
    • ½ Tom
    • A
    • Bb
    • B
    • C
    • Db
    • D
    • Eb
    • E
    • F
    • F#
    • G
    • Ab
  • Adicionar à lista

    0 comentários

    Ver todos os comentários
    00:00 / 00:00
    Outros vídeos desta música
    Repetir Qualidade Automático
    Outros vídeos desta música
    00:00 / 00:00
    Automático

    Cifra Club Pro

    Aproveite o Cifra Club com benefícios exclusivos e sem anúncios
    Cifra Club Pro
    Aproveite o Cifra Club com benefícios exclusivos e sem anúncios
    OK