Cifra Club

Aprenda

Zafar

La Vela Puerca

Cifra: Versão 3 (violão e guitarra)
tom: Am
INTRO    Am
E|----0-----0-----------|
B|----1-----1-----------|
G|----------------------|
D|-------2--------------|
A|-0--------------------|
E|----------------------|
1) Tocar 6 veces
     Dm        G
E|----1-----1-----3-----3-------------|
B|----3-----3-----3-----3-------------|
G|------------------------------------|
D|-0-----0----------------------------|
A|-------------------2----------------|
E|-------------3----------------------|
2)1 vez
       Am          Am            Dm          G
E|----0-----0------0-----0------1-----1-----3-----3--|
B|----1-----1------1-----1------3-----3-----3-----3--|
G|---------------------------------------------------|
D|-------2------------2------0-----0-----------------|
A|-0------------0------------------------------2-----|
E|---------------------------------------3-----------|
3) Tocar 2 veces en intro, en la cancion una sola ves por verso


Luego tocar 1) dos veces y Dm,G

EN TODA A  CANCION SE TOCA 3)
Soy de la ciudad con todo lo que ves:
Con su ruido, con su gente, consume vejez;
y no puedo evitar el humo que entra hoy,
pero igual sigo creciendo, soy otro carbón.
No voy a imaginar la pena en los demás;
compro aire y, si es puro, pago mucho más;
no voy a tolerar que ya no tengan fe,
que se bajen los brazos, que no haya lucidez.

Me voy, volando por ahí,
y estoy convencido de ir;
Me voy, silbando y sin rencor,
  1)       Dm        G
y estoy zafando del olor.

Me encontré con la gente que sabe valorar,
que, de turista en la Capital ha sabido vagar,
y no ha encarado al fin, la cruda realidad
de respirar hollín, de llorar alquitrán.
Y empiezo a envejecer, sudando mi verdad,
criado pa toser, con mucha variedad;
y adónde ir a parar, cargando con mi olor;
deberíamos andar desnudos pa sentirnos mejor.

SEGUNDA GUITARRA PUNTE0 5)
Me voy , volando por ahí,
y estoy convencido de ir;
Me voy, silbando y sin rencor,
  1)     Dm          G
y estoy zafando del olor.

Solo
    Am               Dm          G
Soy de la ciudad con todo lo que ves:
    Am               Dm          G
Con su ruido, con su gente, consume vejez;
    Am               Dm          G
y no puedo evitar el humo que entra hoy,
    Am
pero igual sigo creciendo, soy otro carbón.

BG UE CON 3) Segunda guitarra punteo 4)
No voy a imaginar la pena en los demás;
compro aire y, si es puro, pago mucho más;
no voy a tolerar que ya no tengan fe,
que se bajen los brazos, que no haya lucidez.



SEGUNDA GUITARRA PUNTEO 5)
Me voy, volando por ahí,
y estoy convencido de ir;
Me voy, silbando y sin rencor,
  1)       Dm        G
y estoy zafando del olor.

SEGUNDA GUITARRA 6)
Me voy, volando por ahí,
y estoy convencido de ir;
Me voy, silbando y sin rencor,
  1)       Dm        G
y estoy zafando del olor.

Punteo 4)
E|----------------------------8--------------|
8h10------8h10--8-----8h10----10---10h12h10
E|-------------------------------------------|
B|-------------------------------------------|
G|-------------------------------------------|
D|-------------------------------------------|

E|---------------------------8---10--------------|
8h10-----8h10--8------8h10--------10---10h12h10
E|-----------------------------------------------|
B|-----------------------------------------------|
G|-----------------------------------------------|
D|-----------------------------------------------|

Punteo 5)
E|-----8--12--8---------------------8--12--8---10--------------|
8h10----------10---8h10--8---8h10----------10---10--10h12--10
E|-------------------------------------------------------------|
B|-------------------------------------------------------------|
G|-------------------------------------------------------------|
D|-------------------------------------------------------------|

Punteo 6)
E|----------8----------8-------------------8--12--8---10---------|
8h10h8h10---8h10h810---8---8h10--8--8h10----------10---10h12-10
E|---------------------------------------------------------------|
B|---------------------------------------------------------------|
G|---------------------------------------------------------------|
D|---------------------------------------------------------------|
Composição de Sebastian Teysera
8 exibições
    • ½ Tom
    • Am
    • Bbm
    • Bm
    • Cm
    • C#m
    • Dm
    • Ebm
    • Em
    • Fm
    • F#m
    • Gm
    • G#m
  • Adicionar à lista

    0 comentários

    Ver todos os comentários
    00:00 / 00:00
    Outros vídeos desta música
    Repetir Qualidade Automático
    Outros vídeos desta música
    00:00 / 00:00
    Automático

    Cifra Club Pro

    Aproveite o Cifra Club com benefícios exclusivos e sem anúncios
    Cifra Club Pro
    Aproveite o Cifra Club com benefícios exclusivos e sem anúncios
    OK