Cifra Club

Lichtgestalt

Lacrimosa

Cifra: Principal (violão e guitarra)
tom: E
Inicio Guitar 0:53


|-------------------|------------------|------------------|------------------|--------------------|
|-------------------|------------------|------------------|------------------|--------------------|
|-------------------|------------------|------------------|------------------|--4-4-4-4-4-4-4-4---|
|---8-8-8-8-8-8-8-8-|--3-3-3-3-3-3-3-3-|--4-4-4-4-4-4-4-5-|--6-6-6-6-6-6-6-8-|--4-4-4-4-4-4-4-4---|
|---8-8-8-8-8-8-8-8-|--3-3-3-3-3-3-3-3-|--4-4-4-4-4-4-4-5-|--6-6-6-6-6-6-6-8-|--2-2-2-2-2-4-2-2---|
|---6-6-6-6-6-6-6-6-|--1-1-1-1-1-1-1-1-|--2-2-2-2-2-2-2-3-|--4-4-4-4-4-4-4-6-|--------------------|

|---------------|-------------------|--------------|
|---------------|-------------------|--------------|
|---------------|--4-4-4-4-4-4-4-4--|--------------|FIG 1
|-8-8-8-8-8-8-8-|--4-4-4-4-4-4-4-4--|-6-6-6-6-8-8--|
|-8-8-8-8-8-8-8-|--2-2-2-2-2-2-2-2--|-6-6-6-6-8-8--|
|-6-6-6-6-6-6-6-|-------------------|-4-4-4-4-6-6--|

Chrous

|-----------------|-----------------|------------------|------------------
|-----------------|-----------------|------------------|------------------
|-----------------|-----------------|------------------|-----------4------
|-4-4-4-4-4---4-4-|-4-4-4-4-4-3-4-6-|-8-8-8-8-8---8-8--|-8-8-8-8-8-4-8-6--
|-4-4-4-4-4---4-4-|-4-4-4-4-4-3-4-6-|-8-8-8-8-8---8-8--|-8-8-8-8-8-2-8-6--
|-2-2-2-2-2---2-2-|-2-2-2-2-2-1-2-4-|-6-6-6-6-6---6-6--|-6-6-6-6-6---6-4--

                |-----------------|----------------|
                |-----------------|----------------|
                |-8-8-8-8-8-8--8--|-6-6-6-6-6-6--6-|
                |-8-8-8-8-8-8--8--|-6-6-6-6-6-6--6-|
                |-6-6-6-6-6-6--6--|-4-4-4-4-4-4--4-|
                |-----------------|----------------|
                

|-----------------|------------------|
|-----------------|------------------|
|-4-4-4-4-4-4-4-4-|------------------|
|-4-4-4-4-4-4-4-4-|--8-8-8-8-8-8-8-8-|FIG 2
|-2-2-2-2-2-2-2-2-|--8-8-8-8-8-8-8-8-|
|-----------------|--6-6-6-6-6-6-6-6-|

|-----------------|-----------------|------------------|------------------
|-----------------|-----------------|------------------|------------------
|-----------------|-----------------|------------------|-----------4------
|-4-4-4-4-4-4-4-4-|-4-4-4-4-4-1-4-6-|-8-8-8-8-8-8-8-8--|-8-8-8-8-8-4-8-6--
|-4-4-4-4-4-4-4-4-|-4-4-4-4-4-1-4-6-|-8-8-8-8-8-8-8-8--|-8-8-8-8-8-2-8-6--
|-2-2-2-2-2-2-2-2-|-2-2-2-2-2-3-2-4-|-6-6-6-6-6-6-6-6--|-6-6-6-6-6---6-4--

                |------------------|-----------------|
    |------------------|-----------------|
    |-8-8-8-8-8-8---8--|-6-6-6-6-6-6-8-6-|
    |-8-8-8-8-8-8-3-8--|-6-6-6-6-6-6-8-6-|
    |-6-6-6-6-6-6-3-6--|-4-4-4-4-4-4-6-4-|
    |-------------1----|-----------------|

|------------------|-----------------|
|------------------|-----------------|
|-4-4-4-4-4-4-4-4--|-----------------|
|-4-4-4-4-4-4-4-4--|-8-8-8-8-8-8-8-8-|FIG 3
|-2-2-2-2-2-2-2-2--|-8-8-8-8-8-8-8-8-|
|------------------|-6-6-6-6-6-6-6-6-|


Verso 2

|--------------------|-------------------|-----------------|-------------------|
|--------------------|-------------------|-----------------|-------------------|
|--------------------|--6-6---6---6-6-6--|-----------------|------------4------|
|--4-4---4---4--6--4-|--6-6---6---6-6-6--|-8-8---8---8---8-|--8-8---8-8-4-8-6--|FIG 4 X2
|--4-4---4---4--6--4-|--4-4---4---4-4-4--|-8-8---8---8---8-|--8-8---8-8-2-8-6--|
|--2-2---2---2--4--2-|-------------------|-6-6---6---6---6-|--6-6---6-6---6-4--|

RIFF

|------------------------------------------------------------------------------------|
|------------------------------------------------------------------------------------|
|------------------------------------------------------------------------------------|
|---------------------------------------------------------1--------------------------|
|---------------------------------3---3---3---4---4----4-----------------------------|
|-0---0--0--0--2-4-2---4---4--3-------------------------------4--4----2---2---0---0--|
Composição de Tillo Wolf
Colaboração e revisão:
  • Deivison Santos
8.941 exibições
    • ½ Tom
    • A
    • Bb
    • B
    • C
    • Db
    • D
    • Eb
    • E
    • F
    • F#
    • G
    • Ab
  • Adicionar à lista

    0 comentários

    Ver todos os comentários

    Conseguiu tocar?

    3 Tocaram 0 Ainda não

    Grave um vídeo tocando Lichtgestalt e nos envie!

    00:00 / 00:00
    Outros vídeos desta música
    Repetir Qualidade Automático
    Outros vídeos desta música
    00:00 / 00:00
    Automático

    Cifra Club Pro

    Aproveite o Cifra Club com benefícios exclusivos e sem anúncios
    Cifra Club Pro
    Aproveite o Cifra Club com benefícios exclusivos e sem anúncios
    OK