Cifra Club

Aprenda

Swamped

Lacuna Coil

Cifra: Principal (violão e guitarra)
Quer fazer aulas de música com a gente? Responda essas perguntas
e nos ajude nesse projeto! →
tom: G
INTRODUÇÃO:  Em7

When you're taught ….                               through feelings….
-------------------------------------------------------------------------------------------|
-------------------------------------------------------------------------------------------|
-------------------------------------------------------------------------------------------|
--2----------3---------2-----2-----3-----2-------------------------------------------------| 
--2----------3---------2-----2-----3-----2-------------------------------------------------|
--0---0--0------0--0-----0-----0------------0--0--0----------------------------------------|
REPETIR ESSE RIFF(1) 8x
Em7                                                                                                     
Destiny flying high above …all i know is that you can realize it...
Destiny who cares … as it turns around and I know that it descends down on me…

CHORUS

It's just another another day..the shame is gone..hard to believe..that I've let it go…..

-------------------------------------------------------------------------------------------|
-------------------------------------------------------------------------------------------|
-------5-----------4---7---------5---------4-----7-----------------------------------------|
--2----5----2--5-------7----2----5---2--5--------7-----2-----------------------------------|
--2----3---------------5----2----3---------------5-----2-----------------------------------|
--0-------------------------0--------------------------0-----------------------------------|

RIFF(1)
Em7
Destiny can replace my life…scary shawdows of my past are alive…
Destiny who cares…as it turns around and I know that it descends with a smile…

CHORUS

RIFF(2)

-------------------------------------------------------------------------------------------|
-------------------------------------------------------------------------------------------|
----------4-----4------4--------4----------------------4-----4-----4--------4--------------|
----------3-----3------3--------3---------2------------3-----3-----3--------3---2---2------|
----------2-----2------2--------2---------2------------2-----2-----2--------2---2---2------|
--0-0-0-----0-----0------0-0-----0--0--0----0-0-0-----0-----0------0-0------0---0----------|

VOLTA NO CHORUS
Composição de Andrea Ferro / Cristina Scabbia / Marco Biazzi / Marco Coti Zelati
Colaboração e revisão:
  • benedito neto
11.132 exibições
    • ½ Tom
    • A
    • Bb
    • B
    • C
    • Db
    • D
    • Eb
    • E
    • F
    • F#
    • G
    • Ab
  • Adicionar à lista

    0 comentários

    Ver todos os comentários

    Conseguiu tocar?

    1 Tocaram 0 Ainda não

    Grave um vídeo tocando Swamped e nos envie!

    00:00 / 00:00
    Outros vídeos desta música
    Repetir Qualidade Automático
    Outros vídeos desta música
    00:00 / 00:00
    Automático

    Cifra Club Pro

    Aproveite o Cifra Club com benefícios exclusivos e sem anúncios
    Cifra Club Pro
    Aproveite o Cifra Club com benefícios exclusivos e sem anúncios
    OK