Cifra Club

Need You Now

Lady Antebellum

Cifra: Principal
exibições 423.145
Tom: E (com acordes na forma de C) Capotraste na 4ª casa
Intro:

1ª parte:

  F5(7M/9)  Am
E|-0---------------------------------------|
B|-1-0-1------0-1--------------------------|
G|-0---------------------------------------|
D|-3-----3--2-----2------------------------|
A|-3--------0------------------------------|
E|-----------------------------------------|

2ª parte:

  F5(7M/9)  Am
E|-0---------------0-----------------------|
B|-1-0-1---------1-------------------------|
G|-0-----------0---------------------------|
D|-3-----3--2------------------------------|
A|-3--------0------------------------------|
E|-----------------------------------------|

3ª parte:

  F5(7M/9)  Am
E|-0---------------------0-----------------|
B|-1-0-1------0-1------1-------------------|
G|-0-----------------0---------------------|
D|-3-----3--2-----2------------------------|
A|-3--------0------------------------------|
E|-----------------------------------------|

4ª parte:

  F5(7M/9)  Am
E|-0---------------------------------------|
B|-1-0-1-----------------------------------|
G|-0---------------------------------------|
D|-3-----3--2------------------------------|
A|-3--------0------------------------------|
E|-----------------------------------------|

Primeira Parte:

 F5(7M/9)
Picture perfect memories
                           Am  A5(9)  A4  Am
Scattered all around the floor
 F5(7M/9)
Reaching for the phone 'cause
                     Am  A5(9)  A4  Am
I can't fight it anymore
       F5(7M/9)                    Am  A5(9)  A4  Am
And I wonder if I ever cross your mind
           F5(7M/9)
For me it happens all the time

Refrão:
         C/G
It's a quarter after one
                     Em
I'm all alone and I need you now
 C/G
Said I wouldn't call
                              Em
But I lost all control and I need you now
       F5(7M/9)
And I don't know how I can do without
                    Am
I just need you now

Segunda Parte:

  F5(7M/9)
Another shot of whisky
                           Am  A5(9)  A4  Am
Can't stop looking at the door
 F5(7M/9)
Wishing you'd come sweeping
                      Am  A5(9)  A4  Am
In the way you did before
       F5(7M/9)                    Am  A5(9)  A4  Am
And I wonder if I ever cross your mind
           F5(7M/9)
For me it happens all the time

Refrão:
         C/G
It's a quarter after one
                          Em
I'm a little drunk and I need you now
 C/G
Said I wouldn't call
                              Em
But I lost all control and I need you now
       F5(7M/9)
And I don't know how I can do without

I just need you now

Ponte:

(Am  G/B  C/G  F5(7M/9)  G4) 2x

         F5(7M/9)                        Am  G4
Yes I'd rather hurt than feel nothing at all

Dedilhado Ponte:

  F5(7M/9)         Am             G4
E|-0-0-0--------0--------0--------3--------|
B|-1-1-1----1--------0h1---1------1--------|
G|-0-0-0------0--------------2----0--------|
D|-3-3-3--3--------------------0--0--------|
A|-3-3-3-----------0-----------------------|
E|---1-1--------------------------3--------|
   ↓ ↑ ↓

Refrão Final:

         C/G
It's a quarter after one
                     Em
I'm all alone and I need you now
       C/G
And I said I wouldn't call
                              Em
But I'm a little drunk and I need you now
       F5(7M/9)
And I don't know how I can do without
                 C/G  Em
I just need you now
                 C/G  Em  C/G  Em
I just need you now
                     C/G  Em  C/G
Oh, baby I need you now

Solo Final:

  C/G       Em  C/G      Em   C/G
E|-0-------------0-------------0-----------|
B|-1-0-1---------1-0-1---------1-----------|
G|-0-------------0-------------0-----------|
D|-2-----3--2----2-----3--2----2-----------|
A|-3--------2----3--------2----3-----------|
E|-3--------0----3--------0----3-----------|
Acordes para:
    Colaboração e revisão:
    • Leandro Sandim
    • Lucas Marinho
    • Milady

    0 comentários

      mostrar mais comentários

      Conseguiu tocar?

      66tocaram1ainda não

      Grave um vídeo tocando Need You Now e mande pra gente!

      00:00 / 00:00
      outros vídeos desta música
      repetirqualidadeautomática
      Outro vídeos desta música
        00:00 / 00:00
        automática
        Capítulos
        • Início
        • Tocando a música
        • Acordes da Introdução - Violão 1
        • Tocando Introdução
        • Ensinando Introdução - Violão 1
        • Acordes da Primeira Parte - Violão 1
        • Tocando Primeira Parte
        • Ensinando Primeira Parte - Violão 1
        • Acordes do Refrão - Violão 1
        • Tocando Refrão
        • Acordes da Ponte - Violão 1
        • Tocando Segunda Parte e Ponte
        • Ensinando Ritmo da Ponte - Violão 1
        • Tocando Final
        • Ensinando Final - Violão 1
        • Acordes do Violão 2
        • Tocando a música - Violão 2
        • Encerramento
        OK