Cifra Club

Bad Romance

Lady Gaga

Cifra: Rock
exibições 10.158
Tom: C
(intro)
E|---------------------------------------------|---------------------------------------------|
B|---------------------------------------------|---------------------------------------------|
G|---------------------------------------------|---------------------------------------------|
D|---0-2---2/3---2-3-2-0-------0-2--2-2-2-0----|---0-2---2/3---2-3-2-0-------0-2--2-2-2-0----|G1
A|-3-----3-----------------2-3--------------3--|-3-----3-----------------2-3--------------3--|
E|---------------------------------------------|---------------------------------------------|

E|---------------------------------------------|---------------------------------------------|
B|---------------------------------------------|---------------------------------------------|
G|---------------------------------------------|---------------------------------------------|
D|----------3~---------5~--------7~---------10~|----------3~---------5~--------2~---------7~-|G2
A|----------3~---------5~--------7~---------10~|----------3~---------5~--------2~---------7~-|
E|----------1~---------3~--------5~---------8~-|----------1~---------3~--------0~---------5~-|

(intro 2)
E|----------------------------------------------------------|
B|----------------------------------------------------------|
G|----------------------------------------------------------|
D|----------------------------------------------------------|G1
A|----------------------------------------------------------|
E|----------------------------------------------------------|

E|----------------------------------------------------------|
B|----------------------------------------------------------|
G|----------------------------------------------------------|
D|----------------------------------------------------------|G2
A|-----7-7-8-7-------7-7-8-7-------7-7-8-7------------------|
E|-5-5-----------5-5-----------5-5------------8-8-5-8-5-8---|

E|--------------------------------------------------------------|
B|--------------------------------------------------------------|
G|-----9-9-10-9------9-9-10-9-------9-9-10-9--------------------|
D|-7-7-9-9-10-9--7-7-9-9-10-9--7-7--9-9-10-9--10-10-7-10-7-10---|G1
A|-7-7-7-7-8--7--7-7-7-7-8--7--7-7--7-7-8--7--10-10-7-10-7-10---|
E|-5-5-----------5-5-----------5-5------------8--8--5-8--5-8----|

E|--------------------------------------------------------------|
B|--------------------------------------------------------------|
D|---9-x-9-x-9-x-9-x-9-x-9-x-9-x-9-x-9-x-9-x--------------------|G2
G|---x-x-x-x-x-x-x-x-x-x-x-x-x-x-x-x-x-x-x-x--------------------|
A|---7-x-7-x-7-x-7-x-7-x-7-x-7-x-7-x-7-x-7-x--------------------|
E|--------------------------------------------------------------|


 (verso 2x) (G1 e G2)
E|-----------------------|-----------------------|-----------------------|-----------------------| B|-----------------------|-----------------------|-----------------------|-----------------------|
G|-----------------------|-----------------------|--------9--------------|-----------------------|
D|-(7)----(10)---5-5-5-5-|-(7)----(10)---5-5-5-5-|-(7)----9--10--7-5-5-5-|-(7)----(10)---5-5-5-5-|
A|-(7)----(10)---5-5-5-5-|-(7)----(10)---5-5-5-5-|-(7)----7--10--7-5-5-5-|-(7)----(10)---5-5-5-5-|
E|-(5)x8--(8)x4--3-3-3-4-|-(5)x8--(8)x4--3-0-3-4-|-(5)x6-----8---5-0-3-4-|-(5)x8--(8)x4--3-3-3-4-|

(pre-refrão)
E|---------|
B|---------|
G|---------|
D|--7....--| G1 e G2
A|--7....--|
E|--5....--|

(refrão)
E|-----------------------------|----------------------------|
B|-----------------------------|----------------------------|
G|-----------------------------|----------------------------|
D|-(3)----(5)----(7)----(10)---|-(3)----(5)----(2)----(7)---| G1 e G2
A|-(3)----(5)----(7)----(10)---|-(3)----(5)----(2)----(7)---|
E|-(1)x6--(3)x6--(5)x6--(8~)x6-|-(1)x6--(3)x6--(0)x6--(5)x6-|

(solo) (oh-oh-oh)
E|-----------------------------|----------------------------|
B|-----------------------------|----------------------------|
G|-----------------------------|----------------------------|
D|-(3)----(5)----(7)----(10)---|-(3)----(5)----(2)----(7)---|G1
A|-(3)----(5)----(7)----(10)---|-(3)----(5)----(2)----(7)---|
E|-(1)x6--(3)x6--(5)x6--(8~)x6-|-(1)x6--(3)x6--(0)x6--(5)x6-|

E|---------------------------------------------|---------------------------------------------|
B|---------------------------------------------|---------------------------------------------|
G|---------------------------------------------|---------------------------------------------|
D|---0-2---2/3---2-3-2-0-------0-2--2-2-2-0----|---0-2---2/3---2-3-2-0-------0-2--2-2-2-0----|G2
A|-3-----3-----------------2-3--------------3--|-3-----3-----------------2-3--------------3--|
E|---------------------------------------------|---------------------------------------------|

(intro 2)
E|--------------------------------------------------------------|
B|--------------------------------------------------------------|
G|-----9-9-10-9------9-9-10-9-------9-9-10-9--------------------|
D|-7-7-9-9-10-9--7-7-9-9-10-9--7-7--9-9-10-9--10-10-7-10-7-10---|G1
A|-7-7-7-7-8--7--7-7-7-7-8--7--7-7--7-7-8--7--10-10-7-10-7-10---|
E|-5-5-----------5-5-----------5-5------------8--8--5-8--5-8----|

E|--------------------------------------------------------------|
B|--------------------------------------------------------------|
G|---9-x-9-x-9-x-9-x-9-x-9-x-9-x-9-x-9-x-9-x--------------------|
D|---x-x-x-x-x-x-x-x-x-x-x-x-x-x-x-x-x-x-x-x--------------------|G2
A|---7-x-7-x-7-x-7-x-7-x-7-x-7-x-7-x-7-x-7-x--------------------|
E|--------------------------------------------------------------|

 (verso 2x) (G1 e G2)
E|-----------------------|-----------------------|-----------------------|-----------------------| B|-----------------------|-----------------------|-----------------------|-----------------------|
G|-----------------------|-----------------------|--------9--------------|-----------------------|
D|-(7)----(10)---5-5-5-5-|-(7)----(10)---5-5-5-5-|-(7)----9--10--7-5-5-5-|-(7)----(10)---5-5-5-5-|
A|-(7)----(10)---5-5-5-5-|-(7)----(10)---5-5-5-5-|-(7)----7--10--7-5-5-5-|-(7)----(10)---5-5-5-5-|
E|-(5)x8--(8)x4--3-3-3-4-|-(5)x8--(8)x4--3-0-3-4-|-(5)x6-----8---5-0-3-4-|-(5)x8--(8)x4--3-3-3-4-|

(pre-refrão)
E|---------|
B|---------|
G|---------|
D|--7....--| G1 e G2
A|--7....--|
E|--5....--|

(refrão)
E|-----------------------------|----------------------------|
B|-----------------------------|----------------------------|
G|-----------------------------|----------------------------|
D|-(3)----(5)----(7)----(10)---|-(3)----(5)----(2)----(7)---|G1 e G2
A|-(3)----(5)----(7)----(10)---|-(3)----(5)----(2)----(7)---|
E|-(1)x6--(3)x6--(5)x6--(8~)x6-|-(1)x6--(3)x6--(0)x6--(5)x6-|

(solo) (oh-oh-oh)
E|-----------------------------|----------------------------|
B|-----------------------------|----------------------------|
G|-----------------------------|----------------------------|
D|-(3)----(5)----(7)----(10)---|-(3)----(5)----(2)----(7)---|G1
A|-(3)----(5)----(7)----(10)---|-(3)----(5)----(2)----(7)---|
E|-(1)x6--(3)x6--(5)x6--(8~)x6-|-(1)x6--(3)x6--(0)x6--(5)x6-|

E|---------------------------------------------|---------------------------------------------|
B|---------------------------------------------|---------------------------------------------|
G|---------------------------------------------|---------------------------------------------|
D|---0-2---2/3---2-3-2-0-------0-2--2-2-2-0----|---0-2---2/3---2-3-2-0-------0-2--2-2-2-0----|G2
A|-3-----3-----------------2-3--------------3--|-3-----3-----------------2-3--------------3--|
E|---------------------------------------------|---------------------------------------------|

(intro 2 - 2x)
E|--------------------------------------------------------------|
B|--------------------------------------------------------------|
G|-----9-9-10-9------9-9-10-9-------9-9-10-9--------------------|
D|-7-7-9-9-10-9--7-7-9-9-10-9--7-7--9-9-10-9--10-10-7-10-7-10---|G1
A|-7-7-7-7-8--7--7-7-7-7-8--7--7-7--7-7-8--7--10-10-7-10-7-10---|
E|-5-5-----------5-5-----------5-5------------8--8--5-8--5-8----|

E|--------------------------------------------------------------|
B|--------------------------------------------------------------|
G|---9-x-9-x-9-x-9-x-9-x-9-x-9-x-9-x-9-x-9-x--------------------|
D|---x-x-x-x-x-x-x-x-x-x-x-x-x-x-x-x-x-x-x-x--------------------|G2
A|---7-x-7-x-7-x-7-x-7-x-7-x-7-x-7-x-7-x-7-x--------------------|
E|--------------------------------------------------------------|

(verso 2 - 8x)                         (sendo  x4 Walk, walk..
E|-----------------------|              x2 I want..
B|-----------------------|              x2 ..J'veux..)
G|-----------------------|
D|-----------------------|G1 e G2
A|-----------------------|
E|-(5)x8--(8)x4--(3)x3-4-|

(pre-refrão 2)
E|-----------------------------|----------------------------|
B|-----------------------------|----------------------------|
G|-----------------------------|----------------------------|
D|-----------------------------|----------------------------|G1 e G2
A|-----------------------------|----------------------------|
E|-(1)x6--(3)x6--(5)x6--(8~)x6-|-(1)x6--(3)x6--(0)x6--5/0---|

(refrão)
E|-----------------------------|----------------------------|
B|-----------------------------|----------------------------|
G|-----------------------------|----------------------------|
D|-(3)----(5)----(7)----(10)---|-(3)----(5)----(2)----(7)---|G1 e G2
A|-(3)----(5)----(7)----(10)---|-(3)----(5)----(2)----(7)---|
E|-(1)x6--(3)x6--(5)x6--(8~)x6-|-(1)x6--(3)x6--(0)x6--(5)x6-|

(solo) (oh-oh-oh)
E|-----------------------------|----------------------------|
B|-----------------------------|----------------------------|
G|-----------------------------|----------------------------|
D|-(3)----(5)----(7)----(10)---|-(3)----(5)----(2)----(7)---|G1
A|-(3)----(5)----(7)----(10)---|-(3)----(5)----(2)----(7)---|
E|-(1)x6--(3)x6--(5)x6--(8~)x6-|-(1)x6--(3)x6--(0)x6--(5)x6-|

E|---------------------------------------------|---------------------------------------------|
B|---------------------------------------------|---------------------------------------------|
G|---------------------------------------------|---------------------------------------------|
D|---0-2---2/3---2-3-2-0-------0-2--2-2-2-0----|---0-2---2/3---2-3-2-0-------0-2--2-2-2-0----|G2
A|-3-----3-----------------2-3--------------3--|-3-----3-----------------2-3--------------3--|
E|---------------------------------------------|---------------------------------------------|

(intro 2)
E|-------------------------------------------------------------|
B|-------------------------------------------------------------|
G|-------------------------------------------------------------|
D|-------------------------------------------------------------|G1 e G2
A|-----7-7-8-7-------7-7-8-7-------7-7-8-7---------------------|
E|-5-5-----------5-5-----------5-5------------8-8-5-8-5-8-5/0--|
Acordes para:
    Composição: Lady Gaga / RedOneColaboração e revisão:
    • Daniel Royo

    0 comentários

      mostrar mais comentários

      Conseguiu tocar?

      5tocaram0ainda não

      Grave um vídeo tocando Bad Romance e mande pra gente!

      00:00 / 00:00
      outros vídeos desta música
      repetirqualidadeautomática
      Outro vídeos desta música
        00:00 / 00:00
        automática
        OK