Cifra Club

Mantra do Bom Término

Lagum

Cifra: Principal (violão e guitarra)
Selo Cifra Club: esta cifra foi revisada para atender aos critérios oficiais da nossa Equipe de Qualidade.
tom: Eb
[Tab - Intro]

E|-----------------------------------------------------------|
B|----------8---6---------------3------------------1---------|
G|--------7----------8----------3-------1/3--------1---------|
D|------8-----------------------3------------------1---------| (2x)
A|----6-------------------------X------------------X---------|
E|------------------------------3------------------1---------|

E|-------------------6---------------------------------------|
B|----------8---6---------------3------------------1---------|
G|--------7---------------------3-------1/3--------1---------|
D|------8-----------------------3------------------1---------|
A|----6-------------------------X------------------X---------|
E|------------------------------3------------------1---------|

Eb7M       Gm7     Fm7
Quero é te ver bem
Eb7M       Gm7     Fm7
Mesmo que sem mim
 Eb7M        Gm7
É bom, mas é ruim
   Fm7  D4/G#   Eb7M
Te ver feeeee...  liz

( Eb7M  Ab7M  Eb7M  Ab7M )

Eb7M               Eb7M
Chega de lamentos, só quero alegria
Ab7M             Abm6
Como foi um dia, antes de te conhecer
Eb7M                Eb7M
Eu já tinha amigos, já fazia planos
Ab7M                 Abm6
Tanta coisa eu tinha antes de te conhecer

Eb7M               Eb7M
Não preciso de nada que venha de você
Ab7M                       Abm6
Eu não preciso de nada que venha de você
Eb7M               Eb7M
Não preciso de nada que venha de você
Ab7M                          Abm6
Eu não preciso de nada, nada, nada, nada, nada

   Eb7M       Gm7     Fm7
Eu quero é te ver bem
Eb7M       Gm7     Fm7
Mesmo que sem mim
 Eb7M        Gm7
É bom, mas é ruim
   Fm7  D4/G#   Eb7M
Te ver feeeee...  liz

Eb7M               Eb7M
Eu já ia a festas, frequentava bares
Ab7M                 Abm6
Eu já tinha pressa, conheci lugares
Eb7M               Eb7M
Conheci pessoas, me joguei em mares
Ab7M                    Abm6
Mas não vou me afogar, porque eu já sei nadar

Eb7M               Eb7M
E eu não preciso de nada que venha de você
Ab7M                       Abm6
Eu não preciso de nada que venha de você
Eb7M               Eb7M
Não preciso de nada que venha de você
Ab7M                          Abm6
Eu não preciso de nada, nada, nada, nada, nada

Eb7M       Gm7     Fm7
Quero é te ver bem
Eb7M       Gm7     Fm7
Mesmo que sem mim
 Eb7M        Gm7
É bom, mas é ruim
   Fm7  D4/G#   Eb7M
Te ver feeeee...  liz
Outros vídeos desta música
6.581 exibições
    • ½ Tom
    • A
    • Bb
    • B
    • C
    • Db
    • D
    • Eb
    • E
    • F
    • F#
    • G
    • Ab
  • Adicionar à lista

Afinação da cifra

Afinador online

    0 comentários

    Ver todos os comentários

    Entre para o Cifra Club PRO

    Tenha acesso a benefícios exclusivos no App e no Site

    • Chega de anúncios

    • Mais recursos no app do Afinador

    • Atendimento Prioritário

    • Aumente seu limite de lista

    • Ajude a produzir mais conteúdo

    Cifra Club Pro

    Aproveite o Cifra Club com benefícios exclusivos e sem anúncios
    Cifra Club Pro
    Aproveite o Cifra Club com benefícios exclusivos e sem anúncios
    OK