Cifra Club

Aprenda

Cherry

Lana Del Rey

Cifra: Principal (violão e guitarra)
Tom: C
[Primeira Parte]

     G#m                     B6/G
E|--------7-----------7-----------7-----------7-----|
B|------9---9-------9---9-------9---9-------9---9---|
G|----8-------8---8-------8---8-------8---8-------8-|
D|--6-----------6-----------5-----------5-----------|
A|--------------------------------------------------|
E|--------------------------------------------------|

    B6/F#                   B6/G
E|-------7-----------7-----------7-----------7------|
B|-----9---9-------9---9-------9---9-------9---9----|
G|---8-------8---8-------8---8-------8---8-------8--|
D|-------------------------5-----------5------------|
A|-9-----------9------------------------------------|
E|--------------------------------------------------|

     G#m                     B6/G
E|--------7-----------7-----------7-----------7-----|
B|------9---9-------9---9-------9---9-------9---9---|
G|----8-------8---8-------8---8-------8---8-------8-|
D|--6-----------6-----------5-----------5-----------|
A|--------------------------------------------------|
E|--------------------------------------------------|

    B6/F#                   F#
E|-------7-----------7-----------2------2-----------|
B|-----9---9-------9---9-------2---2----2-----------|
G|---8-------8---8-------8---3-------2--3-----------|
D|-------------------------4------------4-----------|
A|-9-----------9------------------------------------|
E|--------------------------------------------------|

 G#m
Love
B6/G
  I said real love
         B6/F#
It's like feeling no fear
When you're standing in the face of danger
B6/G
  'Cause you just want it so much

   G#m
A touch
      B6/G
From your real love
          B6/F#
It's like heaven
Taking the place of something evil
        F#
And lettin' it burn off from the rush

[Refrão]

 E
Darlin', darlin', darlin'
           G#m
I fall to pieces when
          F#
I'm with you
           E
I fall to pieces
                 G#m
My cherries and wine
               F#
Rosemary and thyme

[Segunda Parte]

               G#m
And all of my peaches are ruined
     B6/G
Love, is it real love?
      B6/F#
It's like smiling
When the firing squad's against you
               F#
But you just stay lined up, yeah, yeah

[Refrão]

        E
'Cause darlin', darlin', darlin'
           G#m
I fall to pieces when
          F#
I'm with you
           E
I fall to pieces
                 G#m
My cherries and wine
               F#
Rosemary and thyme
               E
And all of my peaches are ruined
                 G#m
My rose garden dreams
                F#
Set on fire by fiends
                  E
And all my black beaches are ruined
               G#m                   F#
My celluloid scenes are torn at the seams
               E
And I fall to pieces

I fall to pieces when I'm with you

G#m                     F#
  'Cause I love you so much
           E
I fall to pieces
                 G#m
My cherries and wine
               F#
Rosemary and thyme
               E
And all of my peaches are ruined
Are ruined
Composição de Lana Del Rey
Colaboração e revisão:
  • Lucas Kappaun
  • Paula Avelino
  • Adgenilson Silva
13.612 exibições
    • ½ Tom
    • A
    • Bb
    • B
    • C
    • Db
    • D
    • Eb
    • E
    • F
    • F#
    • G
    • Ab
  • Adicionar à lista

    0 comentários

    Mostrar mais comentários

    Conseguiu tocar?

    3 Tocaram 0 Ainda não

    Grave um vídeo tocando Cherry e mande pra gente!

    00:00 / 00:00
    outros vídeos desta música
    repetir qualidade Automático
    Outros vídeos desta música
    00:00 / 00:00
    Automático

    Cifra Club Pro

    Aproveite o Cifra Club com benefícios exclusivos e sem anúncios
    7 dias grátis
    Cifra Club Pro
    Aproveite o Cifra Club com benefícios exclusivos e sem anúncios
    7 dias grátis
    OK