Cifra Club

Aprenda

Non è detto

Laura Pausini

Cifra: Principal (violão e guitarra)
tom: F# (forma dos acordes no tom de F) Capotraste na 1ª casa
[Intro] A#  F  A#  F

E|-------0------1------0----------------0-----5---------0-----|
B|-3-----------------------1-------3----------------1---------|
G|--------------------------------------------2---------------|
D|--------------3-----------------------------3---------------|
A|-1-------------------------------1--------------------------|
E|--------------1---------------------------------------------|

             A#
E tu cos'aspettavi
                          F
A dirmi quello che dovevi dire?
                A#
A non rischiare niente
                                 F
Non vai all'inferno e neache sull'altare
               A#
E noi così distanti
                       Dm
A sopportarci con educazione
               A#
La colpa non esiste
                             F
Ma ognuno prenda la sua direzione

                      Am                A#
E|----5---3---0-------------3-1-0--------------------------|
B|------------------------1-----------3---3---3---3--------|
G|--2---2---2---2-------2---------------3---3---3---3-...--|
D|--------------------2------------------------------------|
A|------------------0-----------------1--------------------|
E|-1-------------------------------------------------------|

                      C
Perdonami per questi giorni
                       A#
Non li ho saputi raccontare
                    F
Avevo un indirizzo nuovo
                    Am
E un posto per scappare

A#                            F
   E non è detto che mi manchi sempre
                          Am
Le cose cambiano improvvisamente
                             Dm      F    A#
E certi angoli di notte non avranno luce mai
                             F
E non è detto che non provo niente
                                    Am
Se tengo gli occhi sul tuo sguardo assente
                                Dm
E se mi fido della forza di un ricordo
F     A#
Casomai

Prenditi l'ombrello
                               F
Che sia il riparo sotto la tempesta
                  A#
Se quello che ti devo
                              F     Am
È avere il cuore dalla parte giusta

A#                        C
   Perdonami per questi giorni
                      Dm
Non li ho saputi raccontare
                         F
Ho un treno verso l'aeroporto
                  C
E un volo tra due ore

A#                               F
    E non è detto che mi manchi sempre
                         Am
Le cose cambiano improvvisamente
                             Dm      F    A#
E certi angoli di notte non avranno luce mai
                             F
E non è detto che non provo niente
                                     Am
Se tengo gli occhi sul tuo sguardo assente
                                  Dm
Perché mi fido della forza di un ricordo
F    A#
Casomai

E|-----------------------------------------------------------------------------|
B|-6--5--6--5--6/--8----6--5-------5--6/--8----5-5-5-3-3-3-5-5-5-3-3-3-5-5-3-3-|
G|----------------------------7/5----------------------------------------------|
D|-----------------------------------------------------------------------------|
A|-----------------------------------------------------------------------------|
E|-----------------------------------------------------------------------------|

E|--------------------|
B|-6--5--6------------|
G|--------------------|
D|--------------------|
A|--------------------|
E|--------------------|

F                         Am
  E non è detto, e non è detto
                        Dm    F
E non è detto, e non è detto

A#                                  F
   Ma chi l'ha detto che non provo niente
                                Am
Quello che è stato rimarrà importante
                                 Dm     C        A#
Come la piccola speranza che ci serve e che ti dai

                       C
Perdonami per questi giorni
                    A#
Non ho saputo come fare
Composição de Edwyn Roberts / Gianluigi Fazio / Laura Pausini / Niccolò Agliardi
Colaboração e revisão:
  • Pedro Fogaça
764 exibições
    • ½ Tom
    • A
    • Bb
    • B
    • C
    • Db
    • D
    • Eb
    • E
    • F
    • F#
    • G
    • Ab
  • Adicionar à lista

    0 comentários

    Ver todos os comentários

    Conseguiu tocar?

    0 Tocaram 0 Ainda não

    Grave um vídeo tocando Non è detto e nos envie!

    00:00 / 00:00
    outros vídeos desta música
    repetir qualidade Automático
    Outros vídeos desta música
    00:00 / 00:00
    Automático

    Cifra Club Pro

    Aproveite o Cifra Club com benefícios exclusivos e sem anúncios
    Cifra Club Pro
    Aproveite o Cifra Club com benefícios exclusivos e sem anúncios
    OK