Cifra Club

Aprenda

Back To Me

Lauren Jauregui

Cifra: Principal (violão e guitarra)
tom: F
Introdução:

       F  Am  F               F  Am  F

E|----------------------|----------------------|
B|----------------------|----------------------|
G|----------------------|----------------------|    
D|--------2-------------|--------2-------------|
A|--0--3--------3----3--|--0--3--------3----3--|
E|-----------1----1-----|-----------1----1-----|


I've been looking at you with a little something that you've been ignoring

E|----------------------|----------------------|
B|----------------------|----------------------|
G|----------------------|----------------------|    
D|--------2-------------|--------2-------------|
A|--0--3--------3----3--|--0--3--------3----3--|
E|-----------1----1-----|-----------1----1-----|


You've been looking at me with it I don't know what exactly but it's boring

E|----------------------|----------------------|
B|----------------------|----------------------|
G|----------------------|----------------------|    
D|--------2-------------|--------2-------------|
A|--0--3--------3----3--|--0--3--------3----3--|
E|-----------1----1-----|-----------1----1-----|

Play it cool, but I see through it you should listen to the music

E|----------------------|----------------------|
B|----------------------|----------------------|
G|----------------------|----------------------|    
D|--------2-------------|--------2-------------|
A|--0--3--------3----3--|--0--3--------3----3--|
E|-----------1----1-----|-----------1----1-----|

Boy, I know you want it so you better get up on it or you'll lose it, lose it, lose it

E|----------------------|----------------------|
B|----------------------|----------------------|
G|----------------------|----------------------|    
D|--------2-------------|--------2-------------|
A|--0--3--------3----3--|--0--3--------3----3--|
E|-----------1----1-----|-----------1----1-----|


RITMO: ↓ para cada acorde


Am        F
Mind if I slow you down
Am        F
No reply, you'll come back


RITMO: ↓↓ ↓↓↑ para cada acorde
 
Am                                  F
Love to watch you try and turn your back to me
Am                                  F
But I know that any minute you'll be back to me
Am          F
Back, back, back to me
Am                                  F
Back, back, back, back, back, back, back to me

Am                                  F
Love to watch you try and turn your back to me
Am                                  F
But I know that any minute you'll be back to me
Am          F
Back, back, back to me
Am                                  F
Back, back, back, back, back, back, back to me


Baby could you shut up? Cause I don't need you to come up with excuses

E|----------------------|----------------------|
B|----------------------|----------------------|
G|----------------------|----------------------|    
D|--------2-------------|--------2-------------|
A|--0--3--------3----3--|--0--3--------3----3--|
E|-----------1----1-----|-----------1----1-----|

I just need your eyes on me so I can see you watching me move it

E|----------------------|----------------------|
B|----------------------|----------------------|
G|----------------------|----------------------|    
D|--------2-------------|--------2-------------|
A|--0--3--------3----3--|--0--3--------3----3--|
E|-----------1----1-----|-----------1----1-----|

So soft and cryptic oh, while you listen to the music

E|----------------------|----------------------|
B|----------------------|----------------------|
G|----------------------|----------------------|    
D|--------2-------------|--------2-------------|
A|--0--3--------3----3--|--0--3--------3----3--|
E|-----------1----1-----|-----------1----1-----|

Boy I know you want it so you better get up on it or you'll lose it, I'll prove it

E|----------------------|----------------------|
B|----------------------|----------------------|
G|----------------------|----------------------|    
D|--------2-------------|--------2-------------|
A|--0--3--------3----3--|--0--3--------3----3--|
E|-----------1----1-----|-----------1----1-----|


RITMO: ↓ para cada acorde


Am        F
Mind if I take you down

Am            F
Get you high, am I aloud?


RITMO: ↓↓ ↓↓↑ para cada acorde

Am                                F
Better watch you try to turn your back to me
Am                                    F
When I know that any minute you'll be back to me
Am          F
Back, back, back to me
Am                                  F
Back, back, back, back, back, back, back to me

Am                                F
Better watch you try to turn your back to me
Am                                    F
When I know that any minute you'll be back to me
Am          F
Back, back, back to me
Am                                  F
Back, back, back, back, back, back, back to me


RITMO: ↓ ↑ ↓ 4X


Am
Know that any, know that any, know that any, know that any


RITMO: ↓↓ ↓↓↑ para cada acorde

Am                             F
Know that any minute you'll be back to me
Am                     F
Love to watch you try, love to watch you try
Am                F
Feel me, feel me, feel me
Am                            F
Back, back, back, back, back, ba-ba-ba-ba
Am                F
While you listen, while you listen
Am                   F
While you, while you listen to the music
Am                F
While you listen, while you listen
Am                   F
While you, while you listen to the music


Love to watch you try and turn your back to me when I know that any minute you'll be back to me

E|----------------------|----------------------|
B|----------------------|----------------------|
G|----------------------|----------------------|    
D|--------2-------------|--------2-------------|
A|--0--3--------3----3--|--0--3--------3----3--|
E|-----------1----1-----|-----------1----1-----|

Back, back, back to me, back, back, back, back, back, back, back, back, back, back, back

E|----------------------|----------------------|
B|----------------------|----------------------|
G|----------------------|----------------------|    
D|--------2-------------|--------2-------------|
A|--0--3--------3----3--|--0--3--------3----3--|
E|-----------1----1-----|-----------1----1-----|


RITMO: ↓↓ ↓↓↑ para cada acorde

Am                              F
Better watch you try, don't you back to me
Am                                    F
When I know that any minute you'll be back to me
Am          F
Back, back, back to me
Am                                  F
Back, back, back, back, back, back, back to me
Composição de Lauren Jauregui / Marian Hill
2.561 exibições
    • ½ Tom
    • A
    • Bb
    • B
    • C
    • Db
    • D
    • Eb
    • E
    • F
    • F#
    • G
    • Ab
  • Adicionar à lista

    0 comentários

    Ver todos os comentários

    Conseguiu tocar?

    2 Tocaram 0 Ainda não

    Grave um vídeo tocando Back To Me e nos envie!

    00:00 / 00:00
    outros vídeos desta música
    repetir qualidade Automático
    Outros vídeos desta música
    00:00 / 00:00
    Automático

    Cifra Club Pro

    Aproveite o Cifra Club com benefícios exclusivos e sem anúncios
    Cifra Club Pro
    Aproveite o Cifra Club com benefícios exclusivos e sem anúncios
    OK