Enviar cifraEntrar

Rumo à Goiânia

Leandro & Leonardo

Cifra: Principal
exibições 268.901
Tom: B
Intro: F# G#m F# E B F#

Solo:
           F#


E|---9--9--9----7-7-7-----6-6-6---------­--------|
B|---11-11-11---9-9-9-----7-7-7------9--7-­------|
G|----------------------------------------­------|
D|-----------------------------------9--8-------|
A|----------------------------------------­------|
E|----------------------------------------­------|


     G#m


E|--11--11--11------9--9--9----7-7-7----­--------|
B|--12--12--12-----11-11-11----9-9-9----11­--9---|
G|----------------------------------------­------|
D|--------------------------------------11--9---|
A|----------------------------------------­------|
E|----------------------------------------­------|


       F#                E               B


E|----------------------------------------­------|
B|--7--9--11--9--7------------------------­------|
G|-------------------------1----­----------------|
D|--8--9--11--9--8-----2--4--2-­1h2h1------------|
A|------------------------------------4--2------|
E|----------------------------------------­------|


E|-------------------------------4-­-6-----------|
B|-----------------------4---5--7--7-­-----------|
G|------------------4-6---------------­----------|
D|------------4-6-------------------------­------|
A|---2-4/6--------------------------------­------|
E|----------------------------------------­------|


         F#

E|--9- -9---9----7-7-7----6-6-6----------­-------|

B|--11-11-11-----9-9-9----9-9-9------9--7-­------|
G|----------------------------------------­------|
D|-----------------------------------9--8-------|
A|----------------------------------------­------|
E|----------------------------------------­------|


        G#m


E|--11--11--11------9--9--9----7-7-7----­--------|
B|--12--12--12-----11-11-11----9-9-9----11­-9-9--|
G|----------------------------------------­------|
D|--------------------------------------11-9-9--|
A|----------------------------------------­------|
E|----------------------------------------­------|



        F#                    E        B
       

E|----------------------------------------­------|
B|--7---9---11---9---7--------------------------|
G|------------------------------1-3-1-------­----|
D|--8---9---11---9---8--------4-------4-2-1-----|
A|------------------------------------------­2~--|
E|----------------------------------------­------|


  

          F#
      

E|----------------------------------------------|
B|--12-11-9--11--9----9-------------------------|
G|-----------------11---11--9-11-9-8------------|
D|----------------------------------9~~---------|
A|----------------------------------------------|
E|----------------------------------------------|




   B                                     F#
É noite, o carro está rugindo parecendo fera
                    E         F#        B   B7
Voando baixo em Campinas, na Via Anhanguera


E|-------------------------------4-­-6-----------|
B|-----------------------4---5--7--7-­-----------|
G|------------------4-6---------------­----------|
D|------------4-6-------------------------­------|
A|---2-4/6--------------------------------­------|
E|----------------------------------------­------|


   E                                         B
Já estou vendo ao longe a linda e doce Ribeirão
                                 F#
Toda iluminada feito um céu no chão
           F#7                 B   F#7
Na noite azulada de uma primavera


E|----------------------------------------------|
B|--12-11-9--11--9----9-------------------------|
G|-----------------11---11--9-11-9-8------------|
D|----------------------------------9~~---------|
A|----------------------------------------------|
E|----------------------------------------------|



 B                                F#
A saudade já não cabe no meu coração



E|---9--9--9----7-7-7-------------------­--------|
B|---11-11-11---9-9-9---------------------­------|
G|----------------------------------------­------|
D|----------------------------------------------|
A|----------------------------------------­------|
E|----------------------------------------­------|


                        E        F#        B  B7
Grudada como faz na estrada os pneus no chão


E|-------------------------------4-­-6-----------|
B|-----------------------4---5--7--7-­-----------|
G|------------------4-6---------------­----------|
D|------------4-6-------------------------­------|
A|---2-4/6--------------------------------­------|
E|----------------------------------------­------|




E                                     B
Uberaba e Uberlândia já deixei pra trás
                            F#
Em Itumbiara entrando em Goiás
               F#7               B   (B A#m G#m)
Quase que eu decolo feito um avião

(REFRÃO)

F#        B
Ê-ê-i Goiânia...
     F#                 E                  B  (B A#m G#m)
Não deu pra segurar a barra, então eu voltei
F#        G#m
Ê-ê-i Goiânia...
  E                  F#                B
Avisa aqueles olhos lindos que eu já cheguei


           F#


E|---9--9--9----7-7-7-----6-6-6---------­--------|
B|---11-11-11---9-9-9-----7-7-7------9--7-­------|
G|----------------------------------------­------|
D|-----------------------------------9--8-------|
A|----------------------------------------­------|
E|----------------------------------------­------|


     G#m


E|--11--11--11------9--9--9----7-7-7----­--------|
B|--12--12--12-----11-11-11----9-9-9----11­--9---|
G|----------------------------------------­------|
D|--------------------------------------11--9---|
A|----------------------------------------­------|
E|----------------------------------------­------|


       F#                E               B


E|----------------------------------------­------|
B|--7--9--11--9--7------------------------­------|
G|-------------------------1----­----------------|
D|--8--9--11--9--8-----2--4--2-­1h2h1------------|
A|------------------------------------4--2------|
E|----------------------------------------­------|


E|-------------------------------4-­-6-----------|
B|-----------------------4---5--7--7-­-----------|
G|------------------4-6---------------­----------|
D|------------4-6-------------------------­------|
A|---2-4/6--------------------------------­------|
E|----------------------------------------­------|


         F#

E|--9- -9---9----7-7-7----6-6-6----------­-------|

B|--11-11-11-----9-9-9----9-9-9------9--7-­------|
G|----------------------------------------­------|
D|-----------------------------------9--8-------|
A|----------------------------------------­------|
E|----------------------------------------­------|


        G#m


E|--11--11--11------9--9--9----7-7-7----­--------|
B|--12--12--12-----11-11-11----9-9-9----11­-9-9--|
G|----------------------------------------­------|
D|--------------------------------------11-9-9--|
A|----------------------------------------­------|
E|----------------------------------------­------|



        F#                    E           B
       

E|----------------------------------------­------|
B|--7---9---11---9---7--------------------------|
G|------------------------------1-3-1-------­----|
D|--8---9---11---9---8--------4-------4-2-1-----|
A|------------------------------------------­2~--|
E|----------------------------------------­------|


  

                                    F#
      

E|----------------------------------------------|
B|--12-11-9--11--9----9-------------------------|
G|-----------------11---11--9-11-9-8------------|
D|----------------------------------9~~---------|
A|----------------------------------------------|
E|----------------------------------------------|


B                                     F#
Esses olhos reluzentes que eu busco agora
                    E         F#          B    B7
Se me chamam com desejo pra mim não tem hora


E|-------------------------------4-­-6-----------|
B|-----------------------4---5--7--7-­-----------|
G|------------------4-6---------------­----------|
D|------------4-6-------------------------­------|
A|---2-4/6--------------------------------­------|
E|----------------------------------------­------|




E                                   B
É por isso que eu ando em alta rotação
                             F#
Feito um asteróide na escuridão
            F#7                B    F#7
O motor do carro parece que chora
     

E|----------------------------------------------|
B|--12-11-9--11--9----9-------------------------|
G|-----------------11---11--9-11-9-8------------|
D|----------------------------------9~~---------|
A|----------------------------------------------|
E|----------------------------------------------|


   B                                        F#
O sol agora está nascendo, está chegando o dia


E|---9--9--9----7-7-7-------------------­--------|
B|---11-11-11---9-9-9---------------------­------|
G|----------------------------------------­------|
D|----------------------------------------------|
A|----------------------------------------­------|
E|----------------------------------------­------|


                     E          F#    B   B7
Mas sei que valeu a pena tanta correria


E|-------------------------------4-­-6-----------|
B|-----------------------4---5--7--7-­-----------|
G|------------------4-6---------------­----------|
D|------------4-6-------------------------­------|
A|---2-4/6--------------------------------­------|
E|----------------------------------------­------|


     E                                     B
Eu quero estar nos braços dela daqui a pouquinho
                              F#
Pois passei a noite voando sozinho
              F#7             B
Dentro desse carro pela rodovia (B A#m G#m)

(Refrão) (2x)
  • 1
  • 2
  • 3
  • 4
  • 5
  • 6
  • 7
  • 8
  • 9
  • 10
  • 11
  • 12
    Acordes para:
      Colaboração e revisão:

      0 comentários

        mostrar mais comentários

        Conseguiu tocar?

        7tocaram1ainda não

        Grave um vídeo tocando Rumo à Goiânia e mande pra gente!

        00:00 / 00:00
        outros vídeos desta música
        repetirqualidadeautomática
        • automática
        Outro vídeos desta música
          00:00 / 00:00
          automática
          • automática
          Acordes para:violão e guitarra
          dificuldadeexibiçõescontribuições
          fecharplay/pause subir/descer velocidade
            Acordes para:violão e guitarra
            acordes
            fechar
            OK