Enviar cifraEntrar

Heartbreaker

Led Zeppelin

Cifra: Principal
exibições 89.013
Tom: G
(riff 1 - parte 1)


e)|-------|------------------------------|
B)|-------|------------------------------|
g)|-------|------------------------------|
d)|-------|---------0--1-2---------------|
a)|-------|--0--3~-----------------------|
e)|--3b---|----------------3b------------|


(riff 1 - parte 2)


e)|-------------------------------------|
b)|-------------------------------------|
g)|-------------------------------------|
d)|---------------0--1-2----------------|
a)|---0-0-0-0-3~------------------------|
e)|----------------------3b-------------|


(riff 2 - parte 1)


e)|--------------------------------------|
b)|--------------------------------------|
g)|--------------------------------------|
d)|----------2--3-4----------------------|
a)|---2--5~------------------------------|
e)|-----------------5b-------------------|


(riff 2 - parte 2)


e)|--------------------------------------|
b)|--------------------------------------|
g)|--------------------------------------|
d)|---------------2--3-4-----------------|
a)|---2-2-2-2-5~-------------------------|
e)|----------------------5b--------------|



(riff 3 - parte 1)


e)|--------------------------------------|
b)|--------------------------------------|
g)|--------------------------------------|
d)|----------3--4-5----------------------|
a)|---3--6~------------------------------|
e)|-----------------6b-------------------|


(riff 3 - parte 2)


e)|--------------------------------------|
b)|--------------------------------------|
g)|--------------------------------------|
d)|---------------3--4-5-----------------|
a)|---3-3-3-3-6~-------------------------|
e)|----------------------6b--------------|


só juntar os riffs e seguir a sequencia da intro:

(Riff 1) x2
(Riff 2) x1
(Riff 3) x1
(Riff 1) x1

Obs: O bend do inicio do Riff 1, no 3° traste da corda E, só é tocado uma vez na intro


Depois quando a música fica só na leva do baixo toque estes power chords:


e)|--------------------------------------------------|
b)|-------7-------7-------7-------7-----7---7---7----|
g)|-2-----7-6-----7-6-----7-6-----7-6---7-6-7-6-7-6--|
d)|-2-----7-7-----7-7-----7-7-----7-7---7-7-7-7-7-7--|
a)|-0-----5-7-----5-7-----5-7-----5-7---5-7-5-7-5-7--|
e)|---------5-------5-------5-------5-----5---5---5--|



a woman came 'long just to watch an' see all the fellas lay their
money down
the ?style? is new but the pay's the same as it was so long ago
but from her eyes a different smile [can't understand this at all]

(play this 3x)

E)|-7-5-|       after this, go to the 1st intro riff, and play it
B)|-7-5-|       twice.  then, play the 2nd riff once, and the 1st
G)|-7-5-|       riff once.
d)|-7-7-|
a)|-5-7-|
e)|---5-|

(after this, the it goes back to the verse riff, with these lyrics)

Well it's been ten years and maybe more since i first set eyes on you
The best years of my life gone by, here i am alone and blue
Some peaple cry and some people die by the wicked ways of love
But i just keep on rollin' 'long with a praise from the lord above

(play the 'chrod' riff (above) 3x, and then this)


e)|------------------------------------|
b)|------------------------------------|
g)|------------------------------------|
d)|------------------------------------|
a)|---6-8-9-10-------------6-8-9-10----|
e)|-8----------6bb-8-8-8-8-----------6-|
2x

e)|-----------------------------------------------|
b)|-----------------------------------------------|
g)|-----------------------------------------------|
d)|-----------------------------------------------|
a)|----8-10-11-12-------------------8-10-11-13----|
e)|-10------------10bb--10-10-10-10------------10-|
1x

e)|------------------------------------------------|
b)|------------------------------------------------|
g)|------------------------------------------------|
d)|------------------------------------------------|
a)|----10-12-13-14------------------10-12-13-14----|
e)|-12-------------12bb-12-12-12-12-------------12-|
1x


People talkin' all around
'bout the way you left me flat
I don't care what the people say
I know where their job is at
One thing i do have on my mind
If you could cloarify please do
Is the way you called me another guy's name
When i tried to make love . . . to you

(just after 'to you', this riff comes in)


e)|------------------------------------------|
b)|-3---3-3---3-3---3-5--3---3-3---3-3---3-5-|
g)|---4-----4-----4--------4-----4-----4-----|
d)|------------------------------------------|
a)|------------------------------------------|
e)|------------------------------------------|


(after this, comes the solo, which i'm not even going to attempt.
After the solo, you come back to the 'verse' riff, with these lyrics)

[can't understand first line]
Abuse my love a thousand times, however hard i try
Heartbreaker your time has come can't take your evil ways
Go away heartbreaker

Now, play the 'chord' riff 6 times, and start playing the 1st intro riff.
Play through it once, and start it again, but leave out the last 9 notes.

If anybody has the solo, please post it.  i'm also looking for tab/chords
To hendrix's purple haze.

(2ª versão)

B|- bend note 1/2 step
B|- bend note full step
B|- bend note 1/4 step
/ - slide up
\ - slide down

(intro)


e)|----|-------------------------------------------|
b)|----|-------------------------------------------|
g)|----|-------------------------------------------|
d)|----|------------0--1-2---------------0--1-2----|
a)|----|-0-------3------------0-0-0-0-3------------|
e)|-3b-|-------------------3b-------------------3b-|


(then play this riff once)


e)|---------------------------------|
b)|---------------------------------|
g)|---------------------------------|
d)|---------------------------------|
a)|---5-7-8-9-------------5-7-8-9---|
e)|-7---------5bb-7-7-7-7---------5b|


(after this, play the first riff once more)

(verses)

   bass plays this bit(8x)                   guitar plays this 1,3,5,7,

E)|-------------------------------------------|      repeat
b)|-------------------------------------------|
g)|---------------------------------------7---|
d)|---------------------------------------7-7-|
a)|-7--let-ring--/-/-/-/-/-/-/-/-10-------5-7-|
E)|-5--let-ring--/-/-/-/-/-/-/-/--8---------5-|bass hits a chord at

                                               same time as guitar

hey fellas have you heard the news      you know annie's back in town
won't take 'long just watch an' see all the fellas lay their
money down
her style is new but the pay's the same as it was so long ago
but from her eyes a different smile like that of one who knows

(play this 3x)


E)|-------------|after this, go to the 1st intro riff, and play it
B)|-------------|twice.  then, play the 2nd riff once, and the 1st
G)|-7---7---7---|riff once.
d)|-7-7-7-7-7-7-|
a)|-5-7-5-7-5-7-|
e)|---5---5---5-|


(after this, the it goes back to the verse riff, with these lyrics)

Well it's been ten years and maybe more since i first set eyes on you
The best years of my life gone by, here i am alone and blue
Some peaple cry and some people die by the wicked ways of love
But i just keep on rollin' 'long with a praise from the lord above

(play the 'chrod' riff (above) 3x, and then this)


e)|------------------------------------|
b)|------------------------------------|
g)|------------------------------------|
d)|------------------------------------|
a)|---6-8-9-10-------------6-8-9-10----|
e)|-8----------6bb-8-8-8-8-----------6-|
2x

e)|-----------------------------------------------|
b)|-----------------------------------------------|
g)|-----------------------------------------------|
d)|-----------------------------------------------|
a)|----8-10-11-12-------------------8-10-11-13----|
e)|-10------------10bb--10-10-10-10------------10-|
1x

e)|------------------------------------------------|
b)|------------------------------------------------|
g)|------------------------------------------------|
d)|------------------------------------------------|
a)|----10-12-13-14------------------10-12-13-14----|
e)|-12-------------12bb-12-12-12-12-------------12-|
1x


People talkin' all around
'bout the way you left me flat
I don't care what the people say
I know where their jive is at
One thing i do have on my mind
If you could clarify please do
Is the way you call me by another guy's name
When i tried to make love . . . to you

Just after 'to you', this riff comes in)

(play twice)

e)|-------------------------------|
b)|-------------------------------|
g)|---7---7---7---7-----7---7-9-9-|
d)|-9---9-------9---------9-------|
a)|-------------------------------|
e)|-------------------------------|

Then e-chord in 7-th position

        solo intro)
  (just fake it)

(play a twice, then just whatever)

-------------------------------
-2--5-2-0--------------------------
----------2-0-------------
--------------2-0----------------
------------------3-------------
-------------------------------


(everyone joins back in with this)

4x

------------------------
--2---3---5---7---5---3-
--0---0---0---0---0---0-
--2---4---5---7---5---4-
--0---0---0---0---0---0-
------------------------


(bass plays this while guitar plays the above, then jim starts

------------------------     playing this too)
------------------------
------------------------ 12x
--------------55--2-4--2
--0---3---4-------------
------------------------


4x

-------------- ---------
-5---3---5---8 ---5--3--
-6---4---6---9 ---6--4--
-7---5---7---10---7--5--
-7---5---7---10---7--5--
-------------- ---------


Hit this chord 25x

-----------------
-5-----------------------
-6-----------------------
-7-----------------------
-7-----------------------
------------------------


(back in on the verse with the guitar playing D A )

Oh! work so hard i couldn't unwind, get some money saved
Abuse my love a thousand times, however hard i tried
Heartbreaker your time has come can't take your evil ways
Go away heartbreaker

(play the D A D A D A bit twice,
with a full bar rest between)

(finish with)

e)|---------------------------------------------------------------------|
b)|--------------------------------------------------------------------2|
g)|--------------------------------------------------------------------4|
d)|------------0--1-2---------------0--1-2---------------------0---1-2-5|
a)|-0-------3------------0-0-0-0-3-------------0--------3--------|
e)|-------------------3b-------------------3b-|


E|-------------------
B|-------------------
G|--2--5^2^0---------
D|------------2^0---- a couple times
A|-----------------3-
E|-------------------


E|--------
B|--------
G|--5^2^0-
D|-------- a bunch of times then, the problem area.. ))
A|--------
E|--------


E|-----------
B|-----------
G|--5b9^2^0--
D|-----------
A|-----------
E|-----------


Ainda faltam algumas correções
  • 1
  • 2
  • 3
  • 4
  • 5
  • 6
  • 7
  • 8
  • 9
  • 10
  • 11
  • 12
    Acordes para:
      Composição: Jimmy Page / John Bonham / John Paul Jones / Robert PlantColaboração e revisão:
      • Francisco
      • Anão

      0 comentários

        mostrar mais comentários

        Conseguiu tocar?

        13tocaram0ainda não

        Grave um vídeo tocando Heartbreaker e mande pra gente!

        00:00 / 00:00
        outros vídeos desta música
        repetirqualidadeautomática
        • automática
        Outro vídeos desta música
          00:00 / 00:00
          automática
          • automática
          Acordes para:violão e guitarra
          dificuldadeexibiçõescontribuições
          4 versões de Tab de baixoexibiçõescontribuições
          1 versão de Tab de bateriaexibiçõescontribuições
          4 versões de Guitar Proformatodownloadscontribuição
          fecharplay/pause subir/descer velocidade
            acordes
            fechar
            OK
            Feedback