Cifra Club

Wasabi

Lee Harding

Tab de baixo: Principal
technically he didn't... someone else did, but he CAN play it so shh)
Tabbed by: Bec

Here is a tab. Use it wisely. If you find wrongness. Please correct it.
My email is * if you wish to do so.
Enjoy!

Intro

G:-------------------------------------------|
D:-------------------------------------------|
A:-----------33333333333334-33333333333334---|
E:-3-1-3-1-3---------------------------------|

Verse 1

G:--------------------------|
D:--------------------------|
A:-333----------------------|
E:-----333-3555--11-111-1---|

G:-----------------------------|
D:-----------------------------|
A:-333-111---------------1-1---|
E:----------1-1-1—1-3-3--------|

G:--------------------------------------|
D:--------------------------------------|
A:-33333333-----------------------------|
E:---------33333333-55555555-11-111-1---|

G:-------------------------------------|
D:-------------------------------------|
A:-33333333-11111111-------------1-1---|
E:-------------------1-1-1-1—4-4-------|

Chorus

G:-------------------------------------|
D:-------------------------------------|
A:-3-3-333----------6-6-6-6------------|
E:---------4-44-444---------66666666---| x2

G:-------------------------|
D:-------------------------|
A:- -----------------------|
E:-4-4-4-4-4-4-333333333---|

G:--------------------------------|
D:--------------------------------|
A:-33333333333334-3-333-334-4-4---|
E:--------------------------------|

Verse 2

G:--------------------------------------|
D:--------------------------------------|
A:-33333333-----------------------------|
E:---------33333333-55555555-11-111-1---|

G:--------------------------------------|
D:--------------------------------------|
A:-33333333-11111111-------------1-1----|
E:-------------------1-1-1-1—4-4--------|

Repeat verse 2


Chorus

G:-------------------------------------|
D:-------------------------------------|
A:-3-3-333----------6-6-6-6------------|
E:---------4-44-444---------66666666---|

G:-------------------------------------|
D:-------------------------------------|
A:-3-3-333----------6-6-6-6------------|
E:---------4-44-444---------6-7-3------|

G:-------------------------------------|
D:-------------------------------------|
A:-3-3-333----------6-6-6-6------------|
E:---------4-44-444---------66666666---| x2

G:--------------------------------|
D:--------------------------------|
A:- ------------------------------|
E:-4-4-4-4-4-4-3333333333333333---|

Solo

G:---------------------------------|
D:---------------------------------|
A:-3-3-333-------------------------|
E:---------5-5-555-4-4-444-3-3-3---| x2

G:--------------|
D:--------------|
A:----------5---|
E:-3-3-3-4------|

Verse

G:------------------------|
D:------------------------|
A:-3--3-------------------|
E:-----3--35----1-1-1-1—--|

G:-----------------------|
D:-----------------------|
A:-3--31--1----------11--|
E:----------1111-44---—--|


G:--------------------------------------|
D:--------------------------------------|
A:-33333333-----------------------------|
E:---------33333333-55555555-11111111---|

G:------------------------------------|
D:------------------------------------|
A:-33333333-11111111--------1-3-------|
E:-------------------1-3-4-—----------|


Chorus

G:-------------------------------------|
D:-------------------------------------|
A:-3-3-333----------6-6-6-6------------|
E:---------4-44-444---------66666666---|

G:-------------------------------------|
D:-------------------------------------|
A:-3-3-333----------6-6-6-6------------|
E:---------4-44-444---------6-7-3------|

G:-------------------------------------|
D:-------------------------------------|
A:-3-3-333----------6-6-6-6------------|
E:---------4-44-444---------66666666---| x2

G:--------------------------------|
D:--------------------------------|
A:- ------------------------------|
E:-4-4-4-4-4-4-3333333333333333---|

G:--------------------------------|
D:--------------------------------|
A:-33333333333334-3333334-34-3----|
E:--------------------------------|


| /  slide up
| \  slide down
| h  hammer-on
| p  pull-off
| ~  vibrato
| +  harmonic
| x  Mute note
00:00 / 00:00
Outros vídeos desta música
Repetir
Outros vídeos desta música
Compositor não encontrado.
96 exibições

0 comentários

Ver todos os comentários

Entre para oCifra Club PRO

Tenha acesso a benefícios exclusivos no App e no Site

  • Chega de anúncios

  • Prioridade de compra em lançamentos

  • Mais recursos no app do Afinador

  • Atendimento Prioritário

  • Descontos nos produtos Cifra Club

  • Ajude a produzir mais conteúdo

00:00 / 00:00

Cifra Club Pro

Aproveite o Cifra Club com benefícios exclusivos e sem anúncios
Cifra Club Pro
Aproveite o Cifra Club com benefícios exclusivos e sem anúncios
OK