Notificações Amigos pendentes

      Legião Urbana

      A Tempestade

      276.823 exibições
      Tom: D
      Intro: (Bm D9 A7 Em7)4x  (Bm G Bm Em)2x
      
      
             Bm                D9                A7                Em7
      E|---------0-----------------0-----------------3---------------------|
      B|-------3---3-------------3---3-------------2---2-------------3-----|
      G|-----4-------4---------2-------2---------0-------0---------0---0---|4x
      D|---4-----------4-----0-----------0-----2-----------2-----2-------2-|
      A|-2-----------------0-----------------0-----------------2-----------|
      E|-----------------------------------------------------0-------------|
      
      
            Bm                G   Bm               Em
      E|--------------------|--------------------|
      B|--------------------|--------------------|
      G|--------------------|--------------------|2x
      D|-4-4-4-4-4-4-4-4----|-4-4-4-4-4-4-4-4--2-|
      A|-0-2-0-2-0-2-0-2--5-|-0-2-0-2-0-2-0-2--2-|
      E|------------------3-|--------------------|
      
       
        Bm            D9
      Será que eu sou capaz
      A7              Em7             Bm
      De enfrentar o seu amor
                  D9  A7      Em7
      Que me traz insegurança
              Bm        D9    A7
      E verdade demais
                         Em7          Bm  D9  A7  Em7
      Será que eu sou capaz?
      
      
            Bm                G   Bm               Em
      E|--------------------|--------------------|
      B|--------------------|--------------------|
      G|--------------------|--------------------|
      D|-4-4-4-4-4-4-4-4----|-4-4-4-4-4-4-4-4--2-|
      A|-0-2-0-2-0-2-0-2--5-|-0-2-0-2-0-2-0-2--2-|
      E|------------------3-|--------------------|
      
      
      Bm              D9              A7
      Veja bem quem eu sou
                              Em7        Bm     D9   A7
      Com teu amor eu quero que sinta dor
                      Em7                     Bm              D9  A7
      Eu quero ver-te em sangue e ser seu credor
              Em7   Bm                D9   A7  Em7
      Veja bem quem eu sou
      
      
            Bm                G   Bm               Em
      E|--------------------|--------------------|
      B|--------------------|--------------------|
      G|--------------------|--------------------|
      D|-4-4-4-4-4-4-4-4----|-4-4-4-4-4-4-4-4--2-|
      A|-0-2-0-2-0-2-0-2--5-|-0-2-0-2-0-2-0-2--2-|
      E|------------------3-|--------------------|
      
      
      Bm                      D9              A7
      Trouxe flores mortas pra ti
                      Em7                     Bm              D9
      Quero rasgar-te e ver o sangue manchar
      A7              Em7             Bm              D9   A7
      Toda a pureza que vem do teu olhar
                      Em7   Bm    D9  A7  Em7
      Eu não sei mais sentir
      
      
             Bm                 G
      E|--------------------|
      B|--------------------|
      G|--------------------|
      D|-4-4-4-4-4-4-4-4----|
      A|-0-2-0-2-0-2-0-2--5-|
      E|------------------3-|
      
      
             Bm
      E|--------------------|
      B|--------------------|
      G|--------------------|
      D|-4-4-4-4-4-4-4-4--4-|
      A|-0-2-0-2-0-2-0-2--2-|
      E|--------------------|
      
        Composição: Dado Villa-Lobos / Renato RussoColaboração e revisão:
        • Anna Gabriella
        • paulicorocha
        • Gabriel

        Comentários 3

        140 .
        • BostaoDaPrivadaNinja BostaoDaPrivadaNinja: Em 24/09/2013 11:21

          vlw é isso ae

        • Clovis Goes Clovis Goes: Em 15/06/2012 11:09

          Olá Confiram aqui no Cifra club " Clovis Goes - A lua e o sol". Se gostar espalhe ok, um abraço a todos!

        • rickbond rickbond: Em 13/11/2011 13:36

          mto legal

        140 cancelar

        conseguiu tocar?

        covers

        Grave um vídeo tocando A Tempestade e mande pra gente!

        Ex.: http://www.youtube.com/watch?v=0IvSvIwGdwk
        ver covers de outras músicas »
        0:00 / 0:00

        Capítulos

          1 versão de violão dificuldade exibições contribuição e correção
          1 versão de guitarra dificuldade exibições contribuição e correção
          1 versão de cavaco dificuldade exibições contribuição e correção
          1 versão de teclado dificuldade exibições contribuição e correção
          2 versões de Guitar Proformatodownloadscontribuição
          play/pausefechar subir/descer velocidade
          6ª corda E5ª corda A4ª corda D3ª corda G2ª corda B1ª corda E
            acordes
            publicidade
            fechar
            ok