Cifra Club

A Tempestade

Legião Urbana

Cifra: Principal
exibições 301.087
Tom: D
Intro: (Bm D9 A7 Em7)4x  (Bm G Bm Em)2x

       Bm                D9                A7                Em7
E|---------0-----------------0-----------------3---------------------|
B|-------3---3-------------3---3-------------2---2-------------3-----|
G|-----4-------4---------2-------2---------0-------0---------0---0---|4x
D|---4-----------4-----0-----------0-----2-----------2-----2-------2-|
A|-2-----------------0-----------------0-----------------2-----------|
E|-----------------------------------------------------0-------------|

      Bm                G   Bm               Em
E|--------------------|--------------------|
B|--------------------|--------------------|
G|--------------------|--------------------|2x
D|-4-4-4-4-4-4-4-4----|-4-4-4-4-4-4-4-4--2-|
A|-0-2-0-2-0-2-0-2--5-|-0-2-0-2-0-2-0-2--2-|
E|------------------3-|--------------------|
 
  Bm            D9
Será que eu sou capaz
A7              Em7             Bm
De enfrentar o seu amor
            D9  A7      Em7
Que me traz insegurança
        Bm        D9    A7
E verdade demais
                   Em7          Bm  D9  A7  Em7
Será que eu sou capaz?

      Bm                G   Bm               Em
E|--------------------|--------------------|
B|--------------------|--------------------|
G|--------------------|--------------------|
D|-4-4-4-4-4-4-4-4----|-4-4-4-4-4-4-4-4--2-|
A|-0-2-0-2-0-2-0-2--5-|-0-2-0-2-0-2-0-2--2-|
E|------------------3-|--------------------|

Bm              D9              A7
Veja bem quem eu sou
                        Em7        Bm     D9   A7
Com teu amor eu quero que sinta dor
                Em7                     Bm              D9  A7
Eu quero ver-te em sangue e ser seu credor
        Em7   Bm                D9   A7  Em7
Veja bem quem eu sou

      Bm                G   Bm               Em
E|--------------------|--------------------|
B|--------------------|--------------------|
G|--------------------|--------------------|
D|-4-4-4-4-4-4-4-4----|-4-4-4-4-4-4-4-4--2-|
A|-0-2-0-2-0-2-0-2--5-|-0-2-0-2-0-2-0-2--2-|
E|------------------3-|--------------------|

Bm                      D9              A7
Trouxe flores mortas pra ti
                Em7                     Bm              D9
Quero rasgar-te e ver o sangue manchar
A7              Em7             Bm              D9   A7
Toda a pureza que vem do teu olhar
                Em7   Bm    D9  A7  Em7
Eu não sei mais sentir

       Bm                 G
E|--------------------|
B|--------------------|
G|--------------------|
D|-4-4-4-4-4-4-4-4----|
A|-0-2-0-2-0-2-0-2--5-|
E|------------------3-|

       Bm
E|--------------------|
B|--------------------|
G|--------------------|
D|-4-4-4-4-4-4-4-4--4-|
A|-0-2-0-2-0-2-0-2--2-|
E|--------------------|
Acordes para:
    Composição: Dado Villa-Lobos / Renato RussoColaboração e revisão:
    • Anna Gabriella
    • Paulo Rocha
    • Gabriel Chagas

    0 comentários

      mostrar mais comentários

      Conseguiu tocar?

      4tocaram0ainda não

      Grave um vídeo tocando A Tempestade e mande pra gente!

      00:00 / 00:00
      outros vídeos desta música
      repetirqualidadeautomática
      Outro vídeos desta música
        00:00 / 00:00
        automática
        OK