Cifra Club

Cut To Black

Lemaitre

Cifra: Principal (violão e guitarra)
Selo Cifra Club: esta cifra foi revisada para atender aos critérios oficiais da nossa Equipe de Qualidade.
tom: D
E|E|-------------------------------------------------------------------------------||
                             CUT TO BAC K - Lemaitre
E|E|-------------------------------------------------------------------------------||

Email me if there are any mistakes or you think it might be different. All of the
tabs are derived from that YouTube video/tutorial.
                       ^ 
Tuning: Standard       |    
                       |

E|-----7-----5-----3-----5-----3-----7------10-----5-----|
B|-----3-----------------------3-------------------------|
G|-----------------------2------------------0------2-----|
D|-----------------2-----0-----------0-------------0-----|
A|-----------2-------------------------------------------|
E|-----3-----------------------3-------------------------|

E|--------7-----------0--5--2--------0--3--------3-----5--5--2--------0------|
B|--------3-----------------------3--------3-----------------------3---------|
G|--------------------------------------------0-----0-----2------------------|
D|--------------5--4-----------4--------2-----------------0-----4------------|
A|-----------5-----------2-----------------------------------------------0---|
E|-----3---------------------------------------------------------------------|

E|--------3-----------0--7--2--------0--10-------3-----5--5--2--------0------|
B|--------3-----------------------3--------3-----------------------3---------|
G|--------------------------------------------0-----0-----2------------------|
D|--------------5--4-----0-----4--------0-----------------0-----4------------|
A|-----------5-----------------------------------------------------------0---|
E|-----3---------------------------------------------------------------------|

E|--------7-----------0--5--2--------0--3--------3-----5--5--2--------0------|
B|--------3-----------------------3--------3-----------------------3---------|
G|--------------------------------------------0-----0-----2------------------|
D|--------------5--4-----------4--------2-----------------0-----4------------|
A|-----------5-----------2-----------------------------------------------0---|
E|-----3---------------------------------------------------------------------|

E|--------3-----------0--7--2--------0--10-------3-----5--5--2--------0------|
B|--------3-----------------------3--------3-----------------------3---------|
G|--------------------------------------------0-----0-----2------------------|
D|--------------5--4-----0-----4--------0-----------------0-----4------------|
A|-----------5-----------------------------------------------------------0---|
E|-----3--------------------------------------------------------------------3|

************************************

| /   slide up
| \   slide down
| h   hammer-on
| p   pull-off
| ~   vibrato
| +   harmonic
| x   Mute note
| b   Bend
| pb  Pre-bend
| br  Bend release
| pbr Pre-bend release
| brb Bend release bend
Outros vídeos desta música
    10 exibições
      • ½ Tom
      • A
      • Bb
      • B
      • C
      • Db
      • D
      • Eb
      • E
      • F
      • F#
      • G
      • Ab
    • Adicionar à lista

    Afinação da cifra

    Afinador online

      0 comentários

      Ver todos os comentários

      Entre para o Cifra Club PRO

      Tenha acesso a benefícios exclusivos no App e no Site

      • Chega de anúncios

      • Badges exclusivas

      • Mais recursos no app do Afinador

      • Atendimento Prioritário

      • Aumente seu limite de lista

      • Ajude a produzir mais conteúdo

      Cifra Club Pro

      Aproveite o Cifra Club com benefícios exclusivos e sem anúncios
      Cifra Club Pro
      Aproveite o Cifra Club com benefícios exclusivos e sem anúncios
      OK