Cifra Club

Miragem do Porto

Lenine

Cifra: Principal (violão e guitarra)
Selo Cifra Club: esta cifra foi revisada para atender aos critérios oficiais da nossa Equipe de Qualidade.
tom: D
E|-------------------------------------------|
B|--------2--------2--------3----------------|
G|-----2--------2--------2-------------------|
D|-----------2--------0--------0--4----------|
A|--0----------------------------------------|
E|-------------------------------------------|

E|-----------------|--2h3--5-5--3---5h7--5-|
B|------0------3---|--3----3-3--3---6h8--7-|
G|--1---1--1---2---|-----------------------|
D|--2------0---0---|-----------------------|
A|-----------------|-----------------------|
E|-----------------|-----------------------|

E|--------------------------------|
B|--------2----------2---------3--|
G|-----2----------2---------2-----|
D|--0---------2----------0--------|
A|--------------------------------|
E|--------------------------------|

E|--0h2-2-2--0--3--2-|---------------------|
B|--3---3-3--3--2--3-|---------------------|
G|-------------------|---------------------|
D|-------------------|--3h4-4-4--4--4--7---|
A|-------------------|--4h5-5-5--5--4--5---|
E|-------------------|---------------------|

E|-----------------------------(12)---(15)-|
B|------------(12)--------(12)-------------|
G|-------(12)-------(12)-------------------|
D|--(12)-----------------------------------|
A|-----------------------------------------|
E|-----------------------------------------|

E|-------------------------|---------------|
B|--5h6--6-6--5--3--5---3--|------3--------|
G|--5----5-5--5--2--5------|----2----------|
D|-------------------------|--0------------|
A|-------------------------|---------------|
E|-------------------------|---------------|

E|-------------------------------------------|
B|-------2-----2--3--3-------2------2--3--3--|
G|-----2-----2-------2-----2------2-------2--|
D|---------2---------0---------2----------0--|
A|--0--------------------0-------------------|
E|-------------------------------------------|

E|----------------------------------------|
B|-----0----0----0-----0----------------------|
G|--1----1----1-----1-----1---2--------------|
D|--2----2----2-----2-----2---0-----------------|
A|----------------------------------------|
E|----------------------------------------|

Eu sou aquele navio, num mar sem rumo e sem dono

E|-------------------|
B|--2------2-2h3--3--|
G|----2------3----2--|
D|-------3--------0--|
A|-------------------|
E|-------------------|

Tenho a miragem do porto, pra reconfortar meu sono

E|------------|
B|--2------3--|
G|----2----2--|
D|-------3-0--|
A|------------|
E|------------|

E flutuar sobre as águas da maré do abandono

E|--------------------------------|
B|-----3------3--------3-----3----|
G|-------0------0--------0--------|
D|--2--------2-------2-----2------|
A|--------------------------------|
E|--------------------------------|

(Melodia 1)
        D
E|---------|
B|--33--33-|
G|--22--22-|
D|--00--00-|
A|---------|
E|---------| 1X

(Melodia 2)
  D        G       A       G             
E|---------------------------------|
B|-33--33--22--22--22--22--22--22--|
G|-22--22--00--00--22--22--00--00--|
D|-00--00--------------------------|
A|-----------------00--00----------|
E|---------33--33----------33--33--| 2X

[Refrão]
Êêee lá no mar, eu vi uma maravilha,           
Vi o rosto de uma ilha, numa noite de luar,  
Êêta luar, lumiou o meu navio,
Quem vai la no mar bravio,
Não sabe o que vai achar.

(Melodia 3)

E|-2p0--0h2--2p0--0h2--2p0--0h2--0h2--0--|
B|-3----3----3----3----3----3----3----1--|
G|---------------------------------------|
D|---------------------------------------|
A|---------------------------------------|
E|---------------------------------------| 2x

E|------------------------|
B|--2------2-----2------3-|
G|----------------------2-|
D|----2-0----2-0-----2--0-|
A|------------------------|
E|------------------------|

E|----------------------------------|
B|------0-----0----0-----0--------3-|
G|--1------1----1-----1------1----2-|
D|--2------2----2-----2------2----0-|
A|----------------------------------|
E|----------------------------------|

E sou a ilha deserta, onde ninguém quer chegar
E|-----------|
B|--2-----3--|
G|--------2--|
D|-0---2--0--|
A|-----------|
E|-----------|

Lendo a rota das estrelas, na imensidão do mar
E|----------|
B|--2-------|
G|----------|
D|-0---2----|
A|----------|
E|----------|

Esperando por um navio,
E|------------------|
B|----2---2---2---2-|
G|-0---0---0---0----|
D|------------------|
A|------------------|
E|------------------|

Que passou sem me avistar

(Melodia 1)  1x

(Melodia 2)  4x (2x em cada refrão)
[Refrão]  2x

(Melodia 3)
00:00 / 00:00
Outros vídeos desta música
Repetir
Outros vídeos desta música
19.059 exibições
  • Simplificar cifra
    • ½ Tom
    • A
    • Bb
    • B
    • C
    • Db
    • D
    • Eb
    • E
    • F
    • F#
    • G
    • Ab
  • Adicionar à lista

Afinação da cifra

Afinador online

    0 comentários

    Ver todos os comentários

    Entre para o Cifra Club PRO

    Tenha acesso a benefícios exclusivos no App e no Site

    • Chega de anúncios

    • Mais recursos no app do Afinador

    • Atendimento Prioritário

    • Aumente seu limite de lista

    • Ajude a produzir mais conteúdo

    00:00 / 00:00

    Cifra Club Pro

    Aproveite o Cifra Club com benefícios exclusivos e sem anúncios
    Cifra Club Pro
    Aproveite o Cifra Club com benefícios exclusivos e sem anúncios
    OK