Cifra Club

Aprenda

O Último Pôr do Sol

Lenine

Cifra: Versão 2 (violão e guitarra)
tom: G
Intro

e|-----------------------------|-----------------------------------|
B|-----------------------------|-----------------------------------|
G|-----------------------2~~~--|-----------------------------(12)--|
D|----------------2-5-4--------|---------------2-5-4--0------(12)--|
A|--5-[5]--2-5-4---------------|--5-[5]--2-5-4---------------(12)--|
D|-------5---------------------|-------5---------------------------|

e|-------------------------------|---------------------------------|
B|-------------------------------|---------------------------------|
G|-----------------------2-2h4h2-|---------------------------------|
D|----------------2-5-4----------|---------------2-5-4--0----------|
A|--5-[5]--2-5-4-----------------|--5-[5]--2-5-4-------------------|
D|-------5-----------------------|-------5-------------------------|

Melodia 1

e|---------0------------------------------|
B|------1-------3------0--3-------0---3---|
G|---------------------------0------------|
D|--0---------------0---------------------|
A|----------------------------------------|
D|----------------------------------------|


Melodia 2 (D9, C9, G, A4)

e|--3-2-0-0-0---0------0------0-----0--0--|
B|--3-3-3-3-3---3------3---3----3---3--5--|
G|--0-0-2-2-2---0------0------------4--7--|
D|------0-0-0---2------2------------5--7--|
A|--------------3------3------------------|
D|----------------------------------------|

Intro 

(Melodia 1)

A onda ainda quebra na praia,
espumas se misturam com o vento.
No dia em que você foi embora, eu fiquei
sentindo saudades do que não foi
lembrando até do que não vivi, pensando em nós dois

Eu lembro a concha em seu ouvido, 
trazendo o barulho do mar na areia.
No dia em que você foi embora, eu fiquei sozinho olhando o sol morrer
por entre as ruínas de Santa Cruz lembrando nós dois

(Melodia 2)
Uuuhhhhh.....

(Melodia 1)

Os edifícios abandonados, 
as estradas sem ninguém, 
óleo queimado, as vigas na areia,
a lua nascendo por entre os fios dos teus cabelos,
por entre os dedos da minha mão passaram certezas e dúvidas

Pois no dia em que você foi embora, eu fiquei 
sozinho no mundo, sem ter ninguém, 
o ultimo homem no dia em que o sol morreu

(Melodia 2)
Uuuhhhhh......

(Melodia 1)
Composição de Lenine / Lula Queiroga
Colaboração e revisão:
  • Diogo
12.661 exibições
    • ½ Tom
    • A
    • Bb
    • B
    • C
    • Db
    • D
    • Eb
    • E
    • F
    • F#
    • G
    • Ab
  • Adicionar à lista

    0 comentários

    Ver todos os comentários

    Conseguiu tocar?

    0 Tocaram 1 Ainda não

    Grave um vídeo tocando O Último Pôr do Sol e nos envie!

    00:00 / 00:00
    Outros vídeos desta música
    Repetir Qualidade Automático
    Outros vídeos desta música
    00:00 / 00:00
    Automático
    Capítulos
    • Início
    • Afinação
    • Tocando a música
    • Tocando Introdução
    • Ensinando Introdução
    • Acorde da Primeira Parte
    • Tocando Primeira Parte
    • Ensinando Dedilhado Primeira Parte
    • Acordes da Ponte
    • Tocando Ponte e Segunda Parte
    • Ensinando Ponte
    • Acordes Finais
    • Tocando trecho final
    • Ensinando Final
    • Encerramento

    Cifra Club Pro

    Aproveite o Cifra Club com benefícios exclusivos e sem anúncios
    Cifra Club Pro
    Aproveite o Cifra Club com benefícios exclusivos e sem anúncios
    OK