Cifra Club

Aprenda

Cerradêro

Léo Eymard

Cifra: Principal (violão e guitarra)
Tom: G
Essa música é tocada originalmente em um violão de 7 cordas, mas eu adaptei essa versão para um violão de 6 cordas. 
Também pode ser executada em um violão de 7 cordas.

Intro:
E|-----------------------------------------|
B|---10--10/----5--------10--10/--------5--|
G|-------------------7h9------------3h4----|
D|-8----------3----8--------------3--------|
A|-----------------------------------------|
E|-----------------------------------------|

E|-----------------------------------------|
B|-5--6--5--3--1---------------------------|
G|-7--9--7--5--4---------------------------|
D|-6--7--6--4--2---------------------------|
A|----8--------0---------------------------|
E|-----------------------------------------|
Colaboração e revisão:
  • Vinicius Chargel
9.213 exibições
    • ½ Tom
    • A
    • Bb
    • B
    • C
    • Db
    • D
    • Eb
    • E
    • F
    • F#
    • G
    • Ab
  • Adicionar à lista

    0 comentários

    Mostrar mais comentários

    Conseguiu tocar?

    5 Tocaram 2 Ainda não

    Grave um vídeo tocando Cerradêro e mande pra gente!

    00:00 / 00:00
    outros vídeos desta música
    repetir qualidade Automático
    Outros vídeos desta música
    00:00 / 00:00
    Automático

    Cifra Club Pro

    Aproveite o Cifra Club com benefícios exclusivos e sem anúncios
    Cifra Club Pro
    Aproveite o Cifra Club com benefícios exclusivos e sem anúncios
    OK