Cifra Club

Sem Love

Léo Santana

Cifra: Principal (violão e guitarra)
Tom: G
[Intro] G  Bm  Am  D

E|-3-7--14-10-14--14-8-12--|
B|-------------------------|
G|-------------------------|
D|-------------------------|
A|-------------------------|
E|-------------------------|

[Primeira Parte]

 G
Hoje o clima tá legal
Bm
 O vento tá batendo
 Am                   D
Lua na janela e você toda sensual

[Pré-Refrão]

G              Bm
 Netflix tá rolando só o primeiro episódio
      Am
Por que não consigo ficar perto de você

[Refrão]

     G
Sem love
     Bm
Sem love
     Am
Sem love
           D                   G
Eu não consigo ficar perto sem amor
     Bm
Sem love
     Am
Sem love
           D                    G
Eu não consigo ficar perto sem love

( Bm  Am  D )

E|-3-7--14-10-14--14-8-12--|
B|-------------------------|
G|-------------------------|
D|-------------------------|
A|-------------------------|
E|-------------------------|

[Segunda Parte]

         G
Eu fico louco te desejo
   Bm
Arrumo um pretexto pra tá
 Am            D
Perto de você só eu e você
       G
Agarradinho
        Bm
Bem juntinho
     Am
Coladinho
D
Até de manhã

[Pré-Refrão]

G              Bm
 Netflix tá rolando só o primeiro episódio
Por que não consigo ficar perto de você

[Refrão]

     G
Sem love
     Bm
Sem love
     Am
Sem love
           D                   G
Eu não consigo ficar perto sem amor
     Bm
Sem love
     Am  D
Sem love

 G
Love
 Bm
Love
     Am
Sem love
           D                   G
Eu não consigo ficar perto sem amor
     Bm
Sem love
     Am  D
Sem love

[Primeira Parte]

 G
Hoje o clima tá legal
Bm
 O vento tá batendo
 Am                   D
Lua na janela e você toda sensual

[Pré-Refrão]

G              Bm
 Netflix tá rolando só o primeiro episódio
Por que não consigo ficar perto de você

[Refrão]

     G
Sem love
     Bm
Sem love
     Am
Sem love
           D                   G
Eu não consigo ficar perto sem amor
     Bm
Sem love
     Am
Sem love
           D                    G
Eu não consigo ficar perto sem love
 Bm
Love
 Am
Love
           D                   G
Eu não consigo ficar perto sem amor
 Bm
Love
 Am
Love
           D                    G
Eu não consigo ficar perto sem love

[Final] Bm  Am  D
        G  Bm  Am  D  G

E|-3-7--14-10-14--14-8-12--|
B|-------------------------|
G|-------------------------|
D|-------------------------|
A|-------------------------|
E|-------------------------|

E|-3-7--14-10-14--14-8-12--|
B|-------------------------|
G|-------------------------|
D|-------------------------|
A|-------------------------|
E|-------------------------|
exibições 1.069
Acordes para:
    Colaboração e revisão:
    • Thiago Almeida

    0 comentários

    mostrar mais comentários

    Conseguiu tocar?

    0 tocaram 0 ainda não

    Grave um vídeo tocando Sem Love e mande pra gente!

    00:00 / 00:00
    outros vídeos desta música
    repetir qualidade Automático
    Outros vídeos desta música
    00:00 / 00:00
    Automático
    OK