Cifra Club

Hero's Life

Leonardo Muller

Cifra: Principal (violão e guitarra)
tom: G
Intro: Am  Em  Am  Em  G  D

Am
I'm here, sitting on the sidewalk
Em
Full of fear, of the dark
Am
Is hard to find
Em
The left in the through of darkness
G
But like i am a hero's life
D
I fixed, the dark cross

Am
Believe what i say
Em
I can leave here with you
Am
Anytime, any day
Em
I'm just afraid
G                         D
After that never could be with you

E
I use my fear
A9
To be by your side
E
I can leave here
A9               G                   D    Em
Just promise me, you will always be, with me

Am
And when we die
Em
I'll climb from hell to heaven
Am
I'm not lying
Em
And no matter if we die now
G
You'll be right here
D
And somehow
Am
I'm near to you
Em
And may be now or later
Am
I'll find a way
Em
I find the truth

Am
Believe what i say
Em
I can leave here with you
Am
Anytime, any day
Em
I'm just afraid
G                         D
After that never could be with you

Solo: Am  Em  Am  Em  G  D (2x)
E|------------------------------------------------------------------------------7-10-8--------------------------
B|----------------------------------------------------------------------------8--------10-8---------------------
G|----5~-7br-5~-----5~-7br-5~-5h7p5---------------------------------5-----5/9---------------10-7----------------
D|5/7-----------5/7-----------------7-5-7~----------------5-----5-7---7--------------------------10-7-----------
A|----------------------------------------------5-----5-7---7-----------------------------------------10-8------
E|------------------------------------------5-8---8--------------------------------------------------------10-8-

E|-----------------------8-10-10b-10b-8----8-10-10b-10b-8----8-10-10b-10b-8---|
B|------------------8-10----------------8v----------------8v----------------8v|
G|-------------7-10-----------------------------------------------------------|
D|--------7-10----------------------------------------------------------------|
A|---8-10---------------------------------------------------------------------|
E|10--------------------------------------------------------------------------|

E
I'm the hero's life
A9
I always find
E                        A9
One way to save everyone in the dark
G
Why give in?
D
Even when it's hard
Em
Nothing is

Am
And when we die
Em
I'll climb from hell to heaven
Am
I'm not lying
Em
And no matter if we die now
G
You'll be right here
D
And somehow
Am
I'm near to you
Em
And may be now or later
Am
I'll find a way
Em
I find the truth
Compositor não encontrado.
Colaboração e revisão:
  • Léo Muller
26 exibições
    • ½ Tom
    • A
    • Bb
    • B
    • C
    • Db
    • D
    • Eb
    • E
    • F
    • F#
    • G
    • Ab
  • Adicionar à lista

    0 comentários

    Ver todos os comentários

    Conseguiu tocar?

    0 Tocaram 0 Ainda não

    Grave um vídeo tocando Hero's Life e nos envie!

    00:00 / 00:00
    Outros vídeos desta música
    Repetir Qualidade Automático
    Outros vídeos desta música
    00:00 / 00:00
    Automático

    Cifra Club Pro

    Aproveite o Cifra Club com benefícios exclusivos e sem anúncios
    Cifra Club Pro
    Aproveite o Cifra Club com benefícios exclusivos e sem anúncios
    OK