Cifra Club

Dedilhado

Leonardo

Cifra: Principal (violão e guitarra)
Selo Cifra Club: esta cifra foi revisada para atender aos critérios oficiais da nossa Equipe de Qualidade.
tom: C
E|---------------------------------------------------|
B|------------------1--------------1-----------------|
G|-----------0----------------0-------------0--------|
D|---------------------------------------------------|
A|------3---------------3-------------3---------3----|
E|---------------------------------------------------|

E|----------------------------------------------------|
B|------------------3----------------3----------------|
G|------------0----------------0-----------0----------|
D|----------------------------------------------------|
A|----------------------------------------------------|
E|-----3------------------3-----------3---------3-----|

E|------------------------------------------------------------|
B|--------------1--------------1-------------------------1----|
G|--------2---------------2-------------2----------2----------|
D|---2--------------2-------------2----------3----------------|
A|------------------------------------------------------------|
E|------------------------------------------------------------|

00:00 / 00:00
Outros vídeos desta música
Repetir
Outros vídeos desta música
43.136 exibições
    • ½ Tom
    • A
    • Bb
    • B
    • C
    • Db
    • D
    • Eb
    • E
    • F
    • F#
    • G
    • Ab
  • Adicionar à lista

Afinação da cifra

Afinador online

    0 comentários

    Ver todos os comentários

    Entre para o Cifra Club PRO

    Tenha acesso a benefícios exclusivos no App e no Site

    • Chega de anúncios

    • Mais recursos no app do Afinador

    • Atendimento Prioritário

    • Aumente seu limite de lista

    • Ajude a produzir mais conteúdo

    00:00 / 00:00

    Cifra Club Pro

    Aproveite o Cifra Club com benefícios exclusivos e sem anúncios
    Cifra Club Pro
    Aproveite o Cifra Club com benefícios exclusivos e sem anúncios
    OK