Cifra Club

Do You Hear The People Sing

Les Miserables

Cifra: Principal
exibições 5.533
Tom: D
Tuning:

E|--------------------------------------------------------------------------|
B|--7-5---5-7-8-10----7-5--------------------------7-5-4-5---3-----3-5------|
G|------7-----------------7-6-4-6-7-2--4-2-----2-7---------4---6-6----------|
D|-----------------------------------------5-4------------------------------|
A|--------------------------------------------------------------------------|
E|--------------------------------------------------------------------------|


E|--------------------------------------------------------------------------|
B|--7-5---5-7-8-10----7-5-------------------------7-5-4-5-8----------------|
G|------7-----------------7-6-4-6-7-2-4-2-----2-7------------6-7------------|
D|----------------------------------------5-4-------------------------------|
A|--------------------------------------------------------------------------|
E|--------------------------------------------------------------------------|


E|--------------------------------------------------------------------------|
B|--------------------------------------5-------5----5----------------------|
G|--2-2-4-3-4-6-7-6-4-7-6-4-2-4-6---6-7---7-6-7--7-6---7-6-4-6-7------------|
D|--------------------------------------------------------------------------|
A|--------------------------------------------------------------------------|
E|--------------------------------------------------------------------------|


E|----------------------------|
B|---------------------5~~~~--|
G|--4--764-764-764-767--------|Repeat from beginning, then go to next bar:
D|----------------------------|
A|----------------------------|
E|----------------------------|


E|--------------------------------------------------------------------------|
B|--7-5---5-7-8-10----7-5--------------------------7-5-4-5---3-----3-5------|
G|------7-----------------7-6-4-6-7-2--6-2-----2-7---------4---6-6----------|
D|-----------------------------------------5-4------------------------------|
A|--------------------------------------------------------------------------|
E|--------------------------------------------------------------------------|


E|--------------------------------------------------------------------------|
B|--7-5---5-7-8-10----7-5-------------------------7-8-7-8-12-5-----15-------|
G|------7-----------------7-6-4-6-7-2-6-2-----2-7--------------7~~----------|
D|----------------------------------------5-4-------------------------------|
A|--------------------------------------------------------------------------|
E|--------------------------------------------------------------------------|


Acordes para:
    Colaboração e revisão:
    • Beatriz Bezerra

    0 comentários

      mostrar mais comentários

      Conseguiu tocar?

      0tocaram0ainda não

      Grave um vídeo tocando Do You Hear The People Sing e mande pra gente!

      00:00 / 00:00
      outros vídeos desta música
      repetirqualidadeautomática
      Outro vídeos desta música
        00:00 / 00:00
        automática
        OK