Cifra Club

Bridge And Tunnel Authority

Less Than Jake

Cifra: Principal (violão e guitarra)
tom: G

               ------------------------------------------------
               ------------------------------------------------

Tabbed by:Steven Bryant (elix997)
E-M*
Tuning-EADGBE

Legend:
*-harmonic
(0)-optional note

Intro:

Guitar One (distortion):

e---------------------------------------------|
b------7*--------------5*---------------------|
g---7*---------7*---5*--------5*--------------|
d-----------7*-------------5*-----------------| (x8)
a---------------------------------------------|
e---------------------------------------------|


Guitar Two (distortion) (come in on fifth time):

e---------------------------------------------|
b---------------------------------------------|
g--7-7--7-7--7-7--7-7----4-4--4-4--4----------|
d--7-7--7-7--7-7--7-7----4-4--4-4--4-5--5-5---|
a--5-5--5-5--5-5--5-5----2-2--2-2--2-5--5-5---|
e------------------------------------3--3-3---|

Verse (Guitar Two just hits a distorted D5 at the beginning)

Guitar One (clean):

e-------0-------------------------------------|
b-----3---3-------3------3--------------------|
g---2-------2---4------4----------------------|   (x2)
d-0-----------4------5------------------------|
a---------------------------------------------|
e---------------------------------------------|

e--2--2---2---2--2---2---2--2---2---3--3---3--|
b--3--3---3---3--3---3---3--3---3---3--3---3--|
g--2--2---2---2--2---2---4--4---4---4--4---4--|   (x2)
d-(0)(0)-(0)-(0)(0)-(0)-(4)(4)-(4)-(5)(5)-(5)-|
a---------------------------------------------|
e---------------------------------------------|

Pre-Chorus:

Guitars One and Two (distortion):

e---------------------------------------------|
b---------------------------------------------|
g--------------------------------7------------|   (x2)
d--7-7-7-7-7-7-7-7-9-9-9-9-5-5-5-7------------|
a--7-7-7-7-7-7-7-7-9-9-9-9-5-5-5-5------------|
e--5-5-5-5-5-5-5-5-7-7-7-7-3-3-3--------------|

Chorus:

Guitars One and Two (distortion):

e---------------------------------------------|
b---------------------------------------------|
g--7-7-7-7------------------------------------|
d--7-7-7-7-2-2-2-2-4-4-4-4-5-5-5-5------------|
a--5-5-5-5-2-2-2-2-4-4-4-4-5-5-5-5------------|
e----------0-0-0-0-2-2-2-2-3-3-3-3------------|

e---------------------------------------------|
b---------------------------------------------|
g--7--7---7--5--5---5--4--4---4---------------|
d--7--7---7--5--5---5--4--4---4--5--5---5-----|
a--5--5---5--3--3---3--2--2---2--5--5---5-----|
e--------------------------------3--3---3-----|

e---------------------------------------------|
b---------------------------------------------|
g--7-7-7-7------------------------------------|
d--7-7-7-7-2-2-2-2-4-4-4-4-5-5-5-5------------|
a--5-5-5-5-2-2-2-2-4-4-4-4-5-5-5-5------------|
e----------0-0-0-0-2-2-2-2-3-3-3-3------------|

e---------------------------------------------|
b---------------------------------------------|
g--7--7---7--5--5---5--4--4---4---------------|
d--7--7---7--5--5---5--4--4---4--5--5---5-----|
a--5--5---5--3--3---3--2--2---2--5--5---5-----|
e--------------------------------3--3---3-----|

That's practically the whole song. Just put it all together. Very fun song to play..

Questions? Comments?
Hit me up:
E*
AIM-stevn53091
Compositor não encontrado.
306 exibições
    • ½ Tom
    • A
    • Bb
    • B
    • C
    • Db
    • D
    • Eb
    • E
    • F
    • F#
    • G
    • Ab
  • Adicionar à lista

    0 comentários

    Ver todos os comentários

    Conseguiu tocar?

    0 Tocaram 0 Ainda não

    Grave um vídeo tocando Bridge And Tunnel Authority e nos envie!

    00:00 / 00:00
    Outros vídeos desta música
    Repetir Qualidade Automático
    Outros vídeos desta música
    00:00 / 00:00
    Automático

    Cifra Club Pro

    Aproveite o Cifra Club com benefícios exclusivos e sem anúncios
    Cifra Club Pro
    Aproveite o Cifra Club com benefícios exclusivos e sem anúncios
    OK