Cifra Club

Aprenda

Disappear

Letters To Cleo

Cifra: Principal (violão e guitarra)
Já pensou em usar uma coleção de roupas do Cifra Club? Responda as perguntas abaixo e nos ajude nessa missão! →
tom: Bb
Chords

      A              D              G             G6
 ___________    ___________    ___________    ___________ 
 | | | | | |    | | | | | |    | | | | | |    | | | | | |
 -----------    -----------    -----------    -----------
 | | * * * |    | | | * | *    | * | | | |    | * | | | |
 -----------    -----------    -----------    -----------
 | | | | | |    | | | | * |    * | | | * *    * | | | * |
 -----------    -----------    -----------    -----------
 | | | | | |    | | | | | |    | | | | | |    | | | | | |
 x 0 1 2 2 0    x x 0 2 3 2    3 2 0 0 3 3    3 2 0 0 3 0
  
  
  *D(high A)        A#             Bm             Em
 ___________    ___________    ___________    ___________
 | | | | | |    | * | | | *    | | | | | |    | | | | | |
 -----------    -----------    -----------    -----------
 | | | * | |    | | | | | |    | * | | | *    | * * | | |
 -----------    -----------    -----------    -----------
 | | | | * |    | | * * * |    | | | | * |    | | | | | |
 -----------    -----------    -----------    -----------
 | | | | | |    | | | | | |    | | * * | |    | | | | | |
 -----------    x 1 3 3 3 1    -----------    0 2 2 0 0 0
 | | | | | *                   | | | | | |
 -----------                   x 2 4 4 3 2
 x x 0 2 3 5     

 

Intro*

|-------------------------------------------
|--8--12--10--8--7--------------------------
|--7-------------7--7--9--11----------------
|-----------------------------7-------------
|-------------------------------------------
|-------------------------------------------

|-------------------------------------------
|--8--12--10--13--10--------7--8--7---------
|--7-------9------11--9--7-----------7------
|---------------------------------------8---
|-------------------------------------------
|-------------------------------------------


Rythym Figure 1 (R1)*

|-------------------------------------------------------------
|-------------------------------------------------------------
|-------------------------------------------------------------
|-------------------------------------------------------------
|--5--------5-5-5---5--5--5----5--5--5----5-5-----------------
|--3--------3-5-6---5--3--2----0--2--0----0-2-----------------

|-------------------------------------------------------------
|-------------------------------------------------------------
|-------------------------------------------------------------
|-------------------------------------------------------------
|--5--------5-5-5---5--5--5----5--5--5----5-5---5----5-5-5----
|--3--------3-5-6---5--3--2----0--2--0----0-2---3----3-5-6----


*listen to the song to get the timing




Verse 1   


D      A         Em           D     A        Em
  What would you do for me my sweet cherubic baby?


D    A    Em              A
  Ideally way up high and lovely


D       A     Em                  D        A       Em  
  But I had a thought that I'm not waiting for you anymore


D     A      Em            A
  I'm astral crystaline pure through


            G      Bb           D       Bm
but you could  disappear tomarrow   who would care?


G                  Bb          D       Bm
  its not like the retribution   would end there



G             Bb           
  you could disappear...


D    *D    G    G6   X2  (listen to song for timing)


Verse 2

D      A    Em            D    A         Em
  Tell us a story tell us all about your heavenly life


D     A         Em                A
  In detail and don't leave out a word    I'm listening


D     A         Em                 D    A           Em
  All growed up stepford son don't ever change don't go away


D    A     Em         A
  To quiet ever to be heard

G                Bb             D     Bm
  you could  disappear tomarrow   who would care?


G                  Bb          D       Bm
  its not like the retribution   would end there

G               Bb             D                Bm
  you could disappear tomarrow  but just let me make it clear so


Outro

W/R1 
keep your eyes down low, and keep very still  X3

            D   *D    G   G6
hands up   
Composição de Greg McKenna / Kay Hanley / Letters to Cleo / Michael Eisenstein / Scott Riebling / Tom Polce
Colaboração e revisão:
  • Gabriela Andrade
1.643 exibições
    • ½ Tom
    • A
    • Bb
    • B
    • C
    • Db
    • D
    • Eb
    • E
    • F
    • F#
    • G
    • Ab
  • Adicionar à lista

    0 comentários

    Ver todos os comentários

    Conseguiu tocar?

    0 Tocaram 0 Ainda não

    Grave um vídeo tocando Disappear e nos envie!

    00:00 / 00:00
    outros vídeos desta música
    repetir qualidade Automático
    Outros vídeos desta música
    00:00 / 00:00
    Automático

    Cifra Club Pro

    Aproveite o Cifra Club com benefícios exclusivos e sem anúncios
    Cifra Club Pro
    Aproveite o Cifra Club com benefícios exclusivos e sem anúncios
    OK