Cifra Club

Culpable

Libido

Cifra: Principal (violão e guitarra)
tom: G
E|------3-------0--------0--------0----|
B|------3-------0--------1--------0----|
G|------0-------0--------0--------0----|
D|------0-------2--------2--------2----|
A|------2-------2--------0--------3----|
E|------3-------0--------0--------3----|

   G            Em               Am7             CMaj7/G
E|-10----------12-12------------10-12-12-------10--------------------|
B|-12----12-12---------------12----------10h12----12-12h10-----------|
G|-12-12------------12-12-12-------------------------------12-12-12--|
D|-------------------------------------------------------------------|
A|-------------------------------------------------------------------|
E|-------------------------------------------------------------------|

   G             Em             Am7       CMaj7/G
E|-10----------12-12-15-15-15-15-15-17-15-19-18-17-15~-|
B|-12----12-12-------13-13-13-13-13-15-13--------------|
G|-12-12-----------------------------------------------|


       G              Em
       no me he sentido culpable
E|--7----------------------7|
B|--8----------------------8|
G|--9----------------------7|

 Am7             CMaj7/G
 De no entregarte un poco mas
E|--8---------------------7-----6/7--|
B|--8---------------------8-----7/8--|
G|--9---------------------7-----6/7--|

G                       Em
 De haber llegado muy tarde
E|-----------------7----------8-----|
B|-----------------8----------8-----|
G|-----------------7----------9-----|


 Am7               CMaj7/G  D#5 CMaj7/G  D#5 CMaj7/G
 Y de tener que explicar
E|-------7-----|
B|-------8-----|
G|-------7-----|

G                    Em
 No me he sentido culpable
E|--7----------------------7|
B|--8----------------------8|
G|--9----------------------7|

 Am7                   CMaj7/G
 De no acercarme un poco mas
E|--8---------------------7-----6/7--|
B|--8---------------------8-----7/8--|
G|--9---------------------7-----6/7--|

G                      Em
 De relajar mi semblante
E|-----------------7----------8-----|
B|-----------------8----------8-----|
G|-----------------7----------9-----|

 Am7              CMaj7/G  D#5 CMaj7/G  D#5
 Y defender mi lugar
E|---------------------7---|
B|---------------------8---|
G|---------------------7---|

         G           Em              Am7         CMaj7/G
         Estoy          pensando     en     ir y      no puedo

E|-7-------7-------------------7--------7-------8--------8----------|
B|---8---8---8---8---8---8---8---8----8---8---8---8---8-----8---8---|
G|-----7-------7---7---7---7-------7--------7-------9---------7---7-|

  G           Em             Am7          CMaj7/G
    Estoy    tratando    de     ver    algo        mejor
E|------7---------------7---------------7-------8-------8------|
B|8---8---8---8---8---8---8---8---8---8---8---8---8---8---8----
G|--7-------7---7---7-------7---7---7-------7-------9-------9--|

G  O:

   Em        CMaj7/G         Em            Am7

E|--------------------------------------------------|
B|--------------------------------------------------|
G|--------------------------------------------------|
D|---------------------------------------2----------|
A|-----------2-5-4-2-0--------------2-4-----4-2-0-2-|
E|-0---0-0h3-----------3---0--0-0h3-----------------|


 Em               CMaj7/G                 Am7                CMaj7/G

E|-----------------------------------------------------------------|
B|-----------------------------------------------------------------|
G|-----------------------------------------------------------------|
D|------------------------1h0---0-0h1-1h3-1-0----0-0h1-1h3-1-0h1h0-|
A|-----------2-5-4-2-0--------3----------------3-------------------|
E|-0---0-0h3-----------3-------------------------------------------|



  G         Em        Am7            CMaj7/G

E|-10---10----10-12----------10--------------------|
B|---12----12-------12-10h12----12-12h10-----------|
G|---------------------------------------12-12-12--|

    G          Em     Am7             CMaj7/G
E|-10----10----10-12-12-15-15-15-15-15-17-15-19-18-17-15~-|
B|----12----12----------13-13-13-13-13-15-13--------------|
G|----------------------------------------------------|


D5-CMaj7/G-D5

  G            Em               Am7               CMaj7/G
 Estoy      pensando       en ti y            no me afecta

E|-7-------7-------------------7--------7-------8--------8----------|
B|---8---8---8---8---8---8---8---8----8---8---8---8---8-----8---8---|
G|-----7-------7---7---7---7-------7--------7-------9---------7---7-|



G           Em                Am7              CMaj7/G
    Estoy      tratando de       ver algo    mejor
E|------7---------------7---------------7-------8-------8------|
B|8---8---8---8---8---8---8---8---8---8---8---8---8---8---8----
G|--7-------7---7---7-------7---7---7-------7-------9-------9--|

G                      Em
 No me he sentido culpable
E|--7----------------------7|
B|--8----------------------8|
G|--9----------------------7|

Am7                CMaj7/G
 de alejarme así nada mas
E|--8---------------------7-----6/7--|
B|--8---------------------8-----7/8--|
G|--9---------------------7-----6/7--|

G                     Em
 Perdona se me hizo tarde
E|-----------------7----------8-----|
B|-----------------8----------8-----|
G|-----------------7----------9-----|

   Am7
 Quiza me tenga que largar


   Em         CMaj7/G      Em          Am7

                           Quiza me tenga que largar
E|--------------------------------------------------|
B|--------------------------------------------------|
G|--------------------------------------------------|
D|---------------------------------------2----------|
A|-----------2-5-4-2-0--------------2-4-----4-2-0-2-|
E|-0---0-0h3-----------3---0--0-0h3-----------------|


 Em           CMaj7/G          Am7           CMaj7/G

 Quiza me tenga que largaaaar   Quiza me tenga que largaaaaaaaaar

E|-----------------------------------------------------------------|
B|-----------------------------------------------------------------|
G|-----------------------------------------------------------------|
D|------------------------1h0---0-0h1-1h3-1-0----0-0h1-1h3-1-0h1h0-|
A|-----------2-5-4-2-0--------3----------------3-------------------|
E|-0---0-0h3-----------3-------------------------------------------|

   G            Em              Am7             CMaj7/G
E|-10----------12-12------------10-12-12-------10--------------------|
B|-12----12-12---------------12----------10h12----12-12h10-----------|
G|-12-12------------12-12-12-------------------------------12-12-12--|
D|-------------------------------------------------------------------|
A|-------------------------------------------------------------------|
E|-------------------------------------------------------------------|

   G   Em    Am7       CMaj7/G
E|-10----------12-12-15-15-15-15-17-15-19-18-17-15~-|
B|-12----12-12-------13-13-13-13-15-13--------------|
G|-12-12--------------------------------------------|
00:00 / 00:00
Outros vídeos desta música
Repetir
Outros vídeos desta música
Composição de Libido
7 exibições
    • ½ Tom
    • A
    • Bb
    • B
    • C
    • Db
    • D
    • Eb
    • E
    • F
    • F#
    • G
    • Ab
  • Adicionar à lista

    0 comentários

    Ver todos os comentários

    Conseguiu tocar?

    0 Tocaram 0 Ainda não

    Grave um vídeo tocando Culpable e nos envie!

    Entre para oCifra Club PRO

    Tenha acesso a benefícios exclusivos no App e no Site

    • Chega de anúncios

    • Prioridade de compra em lançamentos

    • Mais recursos no app do Afinador

    • Atendimento Prioritário

    • Descontos nos produtos Cifra Club

    • Ajude a produzir mais conteúdo

    00:00 / 00:00

    Cifra Club Pro

    Aproveite o Cifra Club com benefícios exclusivos e sem anúncios
    Cifra Club Pro
    Aproveite o Cifra Club com benefícios exclusivos e sem anúncios
    OK