Cifra Club

Aprenda

First Time

Lifehouse

Tab de baixo: Principal
G ----------------------------|
D ----------------------------|
A ----------------------------|    (from intro, verse 1st and 2nd)
E ---5---7---9---11/12--------|

Pre-Chorus

G ------------------------------------|
D ------------------------------------|
A --------------------22---2---22-----|
E ---22---2---22----------------------|

G ------------------------------------|
D ------------------------------------|
A --------------------22---2---22-----|
E ---13-13-13-13----------------------|

(repeat intro/verse)


Chorus:

G ------------------------------------|
D ------------------------------------|
A ---7766-----------------------------|
E ---------2222----5555---7777--------|

G ------------------------------------|
D ------------------------------------|
A ---7766-----------------------------|
E ---------2222----55-77--------------|


Bridge:

G ------------------------------------|
D ------------------------------------|
A ----9999-------2---4---6---8-9------|
E ------------------------------------|
Composição de Jason Wade / Jude Cole
1.002 exibições

0 comentários

Ver todos os comentários

Conseguiu tocar?

0 Tocaram 0 Ainda não

Grave um vídeo tocando First Time e nos envie!

00:00 / 00:00
outros vídeos desta música
repetir qualidade Automático
Outros vídeos desta música
00:00 / 00:00
Automático

Cifra Club Pro

Aproveite o Cifra Club com benefícios exclusivos e sem anúncios
Cifra Club Pro
Aproveite o Cifra Club com benefícios exclusivos e sem anúncios
OK