Cifra Club

Meu Neguinho

Limão Com Mel

Cifra: Principal (violão e guitarra)
Selo Cifra Club: esta cifra foi revisada para atender aos critérios oficiais da nossa Equipe de Qualidade.
tom: G
 [Intro] G  Bm7  C  D
         G  Bm7  C  D

E|---------------------3--2--3--2--2------------|
B|-----------3--5----------------------3---5~---|
G|--3--5----------------------------------------|
D|----------------------------------------------|
A|----------------------------------------------|
E|----------------------------------------------|

E|---------------------3--6/7--7--3--3----------|
B|------------3--5------------------------5--3~-|
G|--3--5----------------------------------------|
D|----------------------------------------------|
A|----------------------------------------------|
E|----------------------------------------------|

 G                     Bm7
Eu queria poder ficar sempre perto de você
       C             Am         Em               D
Pra agente poder se amar sem ninguem pra atrapalhar
      G                   Bm7
Todo dia passear de mãos dadas por ai
         C             Am            D           D  D#º
Se nois dois ficarmos juntos nunca vamos desistir
      Em                  Bm7
Vamos dar um tempo a essa solidão
        C     Am            D
Vem ser a neguinha do meu coração
     Em              Bm7
Se você quiser o meu coração
     C      Am           D
Viveremos juntos uma louca paixão
     G                    Bm7
Na vida tudo é assim tudo pode acontecer
     C            Am         Em          D
Você faz parte de mim eu não quero te perder
      G                      Bm7
Esse amor é muito lindo importante pra nois dois
         C          Am          D       D  D#º
Ninguem vai nos separar meu neguinho
     Em                  Bm7
Vamos dar um tempo a essa solidão
        C    Am           D
Vem ser a neguinha do meu coração
     Em              Bm7
Se você quiser o meu coração
     C     Am           D
Viveremos juntos uma louca paixão
Outros vídeos desta música
    23.377 exibições
      • ½ Tom
      • A
      • Bb
      • B
      • C
      • Db
      • D
      • Eb
      • E
      • F
      • F#
      • G
      • Ab
    • Adicionar à lista

    Afinação da cifra

    Afinador online

      0 comentários

      Ver todos os comentários

      Entre para o Cifra Club PRO

      Tenha acesso a benefícios exclusivos no App e no Site

      • Chega de anúncios

      • Badges exclusivas

      • Mais recursos no app do Afinador

      • Atendimento Prioritário

      • Aumente seu limite de lista

      • Ajude a produzir mais conteúdo

      Cifra Club Pro

      Aproveite o Cifra Club com benefícios exclusivos e sem anúncios
      Cifra Club Pro
      Aproveite o Cifra Club com benefícios exclusivos e sem anúncios
      Ops (: Contenido disponible sólo en portugués.
      OK