Cifra Club

Play, record

Limão Com Mel

Cifra: Principal (violão e guitarra)
Selo Cifra Club: esta cifra foi revisada para atender aos critérios oficiais da nossa Equipe de Qualidade.
tom: F
Intro: (VIOLONCELO)
E|---------------------------------------------|
B|---------------------------------------------|
G|-------------------2---------2-------------2-|
D|-0-2-3-3-2-3-5-3-5---5-2-3-5---3-2-3-5-3-5---|
A|---------------------------------------------|
E|---------------------------------------------|

Solo
E|---8/10-8~-6-5-6-5---5-8/10-10-10-10-8-6-8-6-5-6-5-8-6-5---5-----------|
B|-6-----------------8-------------------------------------8---8-6-------|
G|-----------------------------------------------------------------5-7~-|
D|-----------------------------------------------------------------------|
A|-----------------------------------------------------------------------|
E|-----------------------------------------------------------------------|


Dm                               Gm 
Apague essa tristeza está no seu peito
A4                    A                Dm
Apague as marcas de amores que só te fizeram infeliz
Dm                               Gm
De a volta por cima esqueça tudo que passou
A                      
Aperte pause, stop no seu coração

Dm                         Bb
Agora escuta, vou me declarar
                     Gm                    A4  A
Estou louco pra te amar, quero te fazer feliz
Dm                        Bb
Me entrego por inteiro a vc

Um tape em nossas vidas vai acontecer
Gm                       A   Bb C
É só apertar play prar mim

 F                  Dm
Play, record pode gravar !
Bb                 C
Meu nome no seu coração
 F                  Dm
Play, record pode gravar !
 Bb                     C           (F Dm G C)
Ficarei gravado pra sempre na sua vida

[Solo]

(Apague essa tristeza...)
Outros vídeos desta música
    35.291 exibições
      • ½ Tom
      • A
      • Bb
      • B
      • C
      • Db
      • D
      • Eb
      • E
      • F
      • F#
      • G
      • Ab
    • Adicionar à lista

    Afinação da cifra

    Afinador online

      0 comentários

      Ver todos os comentários

      Entre para o Cifra Club PRO

      Tenha acesso a benefícios exclusivos no App e no Site

      • Chega de anúncios

      • Badges exclusivas

      • Mais recursos no app do Afinador

      • Atendimento Prioritário

      • Aumente seu limite de lista

      • Ajude a produzir mais conteúdo

      Cifra Club Pro

      Aproveite o Cifra Club com benefícios exclusivos e sem anúncios
      Cifra Club Pro
      Aproveite o Cifra Club com benefícios exclusivos e sem anúncios
      Ops (: Contenido disponible sólo en portugués.
      OK