Cifra Club

Take me away

Lindsay Lohan

Cifra: Principal (violão e guitarra)
tom: B
(intro) F#5

(riff)
E |------------------------------------------------------------|
B |------------------------------------------------------------|
G |------------------------------------------------------------|
D |------------------------------------------------------------|
A |--------0-1-2-2--------3-2-0-2-2-1-0------------------------|
E |---2-2-----------------------------------------------------|

Yeah, Yeah

Get up, Get out
Move on, Move on there's no doubt
I'm all wrong, you're right
It's all the same with you
I'm too fit, too fat
You miss squat
So why,
So why,
So why,
So why

F#5
On and on,
And on and on,
On and on,
And on and on,

(refrão)
D5                             F#5
    Don't want to grow up
                   B5
I want to get out
        A5         D5
Hey, take me away
                       F#5
I want to shout out
             B5
Take me away,
    A5
Away,
     E5
Away,
    F#5
Away,
     C#5
Away,

E |------------------------------------------------------------|
B |------------------------------------------------------------|
G |------------------------------------------------------------|
D |------------------------------------------------------------|
A |--------0-0-2-2--------3-2-0-2-2-0-0------------------------|
E |---2-2-----------------------------------------------------|

Round and round here we go again
Same old start, same old end
Turn my head
And turn back again
Same old stuff never ends
Do this, do that
Can't deal Can't deal with that
I tune in, tune out
I've heard it all before
Hello, goodbye
Never asking me why,
Goodbye,
Goodbye,
Goodbye,

F#5
On and on,
And on and on,
On and on,
And on and on,

(refrão)

D5                             F#5
    Don't want to grow up
                   B5
I want to get out
         A5         D5
Hey, take me away
                      F#5
I want to shout out
              B5
Take me away,
    A5
Away,
    E5
Away,
    F#5
Away,
    C#5
Away,

(riff)

Round and round here we go again
Same old story, same old end
Turn my head
And turn back again
Same old stuff never ends
00:00 / 00:00
Outros vídeos desta música
Repetir
Outros vídeos desta música
Compositor não encontrado.
Colaboração e revisão:
33.112 exibições
    • ½ Tom
    • A
    • Bb
    • B
    • C
    • Db
    • D
    • Eb
    • E
    • F
    • F#
    • G
    • Ab
  • Adicionar à lista

    0 comentários

    Ver todos os comentários

    Entre para oCifra Club PRO

    Tenha acesso a benefícios exclusivos no App e no Site

    • Chega de anúncios

    • Prioridade de compra em lançamentos

    • Mais recursos no app do Afinador

    • Atendimento Prioritário

    • Descontos nos produtos Cifra Club

    • Ajude a produzir mais conteúdo

    00:00 / 00:00

    Cifra Club Pro

    Aproveite o Cifra Club com benefícios exclusivos e sem anúncios
    Cifra Club Pro
    Aproveite o Cifra Club com benefícios exclusivos e sem anúncios
    OK